0
SECTION
2
HEADER
9
$ACADVER
1
AC1009
9
$INSBASE
10
0
20
0
30
0
9
$EXTMIN
10
-1.58619319752
20
-0.485121909071
30
-2.7682287669
9
$EXTMAX
10
13.5098391873
20
12.537525148
30
4.14428177793
9
$INSUNITS
70
6
0
ENDSEC
0
SECTION
2
ENTITIES
0
POLYLINE
8
0
39
0
100
AcDb3dPolyline
66
1
10
0
20
0
30
0
70
9
0
VERTEX
8
0
100
AcDb3dPolylineVertex
10
0.0250613924313
20
0.982772062726
30
-0.00723700880978
0
VERTEX
8
0
100
AcDb3dPolylineVertex
10
6.66133814775e-16
20
-8.881784197e-16
30
-2.22044604925e-16
0
VERTEX
8
0
100
AcDb3dPolylineVertex
10
1.22104422373
20
2.96266560618e-07
30
-0.00912526108839
0
VERTEX
8
0
100
AcDb3dPolylineVertex
10
1.2188753062
20
-0.253735762152
30
-0.00728887262243
0
VERTEX
8
0
100
AcDb3dPolylineVertex
10
4.61314517822
20
-0.258258406064
30
-0.0326226288895
0
VERTEX
8
0
100
AcDb3dPolylineVertex
10
4.61515118983
20
0.0166869576781
30
-0.034609960407
0
VERTEX
8
0
100
AcDb3dPolylineVertex
10
4.86105981042
20
0.00745802285058
30
-0.0363814682577
0
VERTEX
8
0
100
AcDb3dPolylineVertex
10
4.82567792016
20
3.60885715456
30
-0.0619511047474
0
VERTEX
8
0
100
AcDb3dPolylineVertex
10
4.12493162384
20
3.60367527618
30
-0.0566770876599
0
VERTEX
8
0
100
AcDb3dPolylineVertex
10
3.39415407711
20
4.33231581133
30
-0.0564425725144
0
SEQEND
0
POLYLINE
8
1
70
64
66
1
10
0
20
0
30
0
71
10
72
8
0
VERTEX
8
1
10
4.82567792016
20
3.60885715456
30
-0.0619511047474
70
192
0
VERTEX
8
1
10
4.12493162384
20
3.60367527618
30
-0.0566770876599
70
192
0
VERTEX
8
1
10
3.39415407711
20
4.33231581133
30
-0.0564425725144
70
192
0
VERTEX
8
1
10
4.86105981042
20
0.00745802285058
30
-0.0363814682577
70
192
0
VERTEX
8
1
10
4.61515118983
20
0.0166869576781
30
-0.034609960407
70
192
0
VERTEX
8
1
10
4.61314517822
20
-0.258258406064
30
-0.0326226288895
70
192
0
VERTEX
8
1
10
1.22104422373
20
2.96266560618e-07
30
-0.00912526108839
70
192
0
VERTEX
8
1
10
1.2188753062
20
-0.253735762152
30
-0.00728887262243
70
192
0
VERTEX
8
1
10
0.0250613924313
20
0.982772062726
30
-0.00723700880978
70
192
0
VERTEX
8
1
10
6.66133814775e-16
20
-8.881784197e-16
30
-2.22044604925e-16
70
192
0
VERTEX
8
1
10
0
20
0
30
0
70
128
71
8
72
6
73
7
0
VERTEX
8
1
10
0
20
0
30
0
70
128
71
6
72
5
73
7
0
VERTEX
8
1
10
0
20
0
30
0
70
128
71
7
72
5
73
2
0
VERTEX
8
1
10
0
20
0
30
0
70
128
71
9
72
7
73
2
0
VERTEX
8
1
10
0
20
0
30
0
70
128
71
10
72
7
73
9
0
VERTEX
8
1
10
0
20
0
30
0
70
128
71
3
72
9
73
2
0
VERTEX
8
1
10
0
20
0
30
0
70
128
71
5
72
1
73
2
0
VERTEX
8
1
10
0
20
0
30
0
70
128
71
5
72
4
73
1
0
SEQEND
0
POLYLINE
8
0
39
0
100
AcDb3dPolyline
66
1
10
0
20
0
30
0
70
9
0
VERTEX
8
0
100
AcDb3dPolylineVertex
10
6.66133814775e-16
20
-8.881784197e-16
30
-2.22044604925e-16
0
VERTEX
8
0
100
AcDb3dPolylineVertex
10
0.0250613924313
20
0.982772062726
30
-0.00723700880978
0
VERTEX
8
0
100
AcDb3dPolylineVertex
10
0.0251330266918
20
0.985579831221
30
0.727471642111
0
VERTEX
8
0
100
AcDb3dPolylineVertex
10
-1.22555467108e-07
20
2.45049669445e-08
30
0.709539994905
0
SEQEND
0
POLYLINE
8
1
70
64
66
1
10
0
20
0
30
0
71
4
72
2
0
VERTEX
8
1
10
0.0251330266918
20
0.985579831221
30
0.727471642111
70
192
0
VERTEX
8
1
10
0.0250613924313
20
0.982772062726
30
-0.00723700880978
70
192
0
VERTEX
8
1
10
-1.22555467108e-07
20
2.45049669445e-08
30
0.709539994905
70
192
0
VERTEX
8
1
10
6.66133814775e-16
20
-8.881784197e-16
30
-2.22044604925e-16
70
192
0
VERTEX
8
1
10
0
20
0
30
0
70
128
71
4
72
2
73
3
0
VERTEX
8
1
10
0
20
0
30
0
70
128
71
2
72
1
73
3
0
SEQEND
0
POLYLINE
8
0
39
0
100
AcDb3dPolyline
66
1
10
0
20
0
30
0
70
9
0
VERTEX
8
0
100
AcDb3dPolylineVertex
10
1.22104422373
20
2.96266560618e-07
30
-0.00912526108839
0
VERTEX
8
0
100
AcDb3dPolylineVertex
10
6.66133814775e-16
20
-8.881784197e-16
30
-2.22044604925e-16
0
VERTEX
8
0
100
AcDb3dPolylineVertex
10
-1.22555467108e-07
20
2.45049669445e-08
30
0.709539994905
0
VERTEX
8
0
100
AcDb3dPolylineVertex
10
1.22806565417
20
1.83086180883e-07
30
1.57264414713
0
SEQEND
0
POLYLINE
8
1
70
64
66
1
10
0
20
0
30
0
71
4
72
2
0
VERTEX
8
1
10
6.66133814775e-16
20
-8.881784197e-16
30
-2.22044604925e-16
70
192
0
VERTEX
8
1
10
-1.22555467108e-07
20
2.45049669445e-08
30
0.709539994905
70
192
0
VERTEX
8
1
10
1.22104422373
20
2.96266560618e-07
30
-0.00912526108839
70
192
0
VERTEX
8
1
10
1.22806565417
20
1.83086180883e-07
30
1.57264414713
70
192
0
VERTEX
8
1
10
0
20
0
30
0
70
128
71
4
72
3
73
2
0
VERTEX
8
1
10
0
20
0
30
0
70
128
71
3
72
1
73
2
0
SEQEND
0
POLYLINE
8
0
39
0
100
AcDb3dPolyline
66
1
10
0
20
0
30
0
70
9
0
VERTEX
8
0
100
AcDb3dPolylineVertex
10
1.2188753062
20
-0.253735762152
30
-0.00728887262243
0
VERTEX
8
0
100
AcDb3dPolylineVertex
10
1.22104422373
20
2.96266560618e-07
30
-0.00912526108839
0
VERTEX
8
0
100
AcDb3dPolylineVertex
10
1.22806565417
20
1.83086180883e-07
30
1.57264414713
0
VERTEX
8
0
100
AcDb3dPolylineVertex
10
1.22595735624
20
-0.244896136302
30
1.57109602111
0
SEQEND
0
POLYLINE
8
1
70
64
66
1
10
0
20
0
30
0
71
4
72
2
0
VERTEX
8
1
10
1.22806565417
20
1.83086180883e-07
30
1.57264414713
70
192
0
VERTEX
8
1
10
1.22104422373
20
2.96266560618e-07
30
-0.00912526108839
70
192
0
VERTEX
8
1
10
1.22595735624
20
-0.244896136302
30
1.57109602111
70
192
0
VERTEX
8
1
10
1.2188753062
20
-0.253735762152
30
-0.00728887262243
70
192
0
VERTEX
8
1
10
0
20
0
30
0
70
128
71
4
72
2
73
3
0
VERTEX
8
1
10
0
20
0
30
0
70
128
71
2
72
1
73
3
0
SEQEND
0
POLYLINE
8
0
39
0
100
AcDb3dPolyline
66
1
10
0
20
0
30
0
70
9
0
VERTEX
8
0
100
AcDb3dPolylineVertex
10
4.61314517822
20
-0.258258406064
30
-0.0326226288895
0
VERTEX
8
0
100
AcDb3dPolylineVertex
10
1.2188753062
20
-0.253735762152
30
-0.00728887262243
0
VERTEX
8
0
100
AcDb3dPolylineVertex
10
1.22595735624
20
-0.244896136302
30
1.57109602111
0
VERTEX
8
0
100
AcDb3dPolylineVertex
10
4.65992617998
20
-0.235797540238
30
3.98454685513
0
SEQEND
0
POLYLINE
8
0
39
0
100
AcDb3dPolyline
66
1
10
0
20
0
30
0
70
9
0
VERTEX
8
0
100
AcDb3dPolylineVertex
10
4.45563159833
20
-0.23893763815
30
3.3774010249
0
VERTEX
8
0
100
AcDb3dPolylineVertex
10
3.3941566668
20
-0.24172026045
30
2.63670674483
0
VERTEX
8
0
100
AcDb3dPolylineVertex
10
3.38210380034
20
-0.252056889222
30
0.79017121986
0
VERTEX
8
0
100
AcDb3dPolylineVertex
10
4.4160250926
20
-0.253399447551
30
0.788725152455
0
SEQEND
0
POLYLINE
8
0
39
0
100
AcDb3dPolyline
66
1
10
0
20
0
30
0
70
9
0
VERTEX
8
0
100
AcDb3dPolylineVertex
10
2.07288106257
20
-0.245198557264
30
1.71216027834
0
VERTEX
8
0
100
AcDb3dPolylineVertex
10
2.06460332795
20
-0.250269320215
30
0.805759938442
0
VERTEX
8
0
100
AcDb3dPolylineVertex
10
3.10408460193
20
-0.251659570379
30
0.797030372418
0
VERTEX
8
0
100
AcDb3dPolylineVertex
10
3.12518014833
20
-0.242481184587
30
2.43909840286
0
SEQEND
0
POLYLINE
8
1
70
64
66
1
10
0
20
0
30
0
71
12
72
14
0
VERTEX
8
1
10
1.2188753062
20
-0.253735762152
30
-0.00728887262243
70
192
0
VERTEX
8
1
10
1.22595735624
20
-0.244896136302
30
1.57109602111
70
192
0
VERTEX
8
1
10
2.06460332795
20
-0.250269320215
30
0.805759938442
70
192
0
VERTEX
8
1
10
2.07288106257
20
-0.245198557264
30
1.71216027834
70
192
0
VERTEX
8
1
10
3.10408460193
20
-0.251659570379
30
0.797030372418
70
192
0
VERTEX
8
1
10
3.12518014833
20
-0.242481184587
30
2.43909840286
70
192
0
VERTEX
8
1
10
3.38210380034
20
-0.252056889222
30
0.79017121986
70
192
0
VERTEX
8
1
10
3.3941566668
20
-0.24172026045
30
2.63670674483
70
192
0
VERTEX
8
1
10
4.4160250926
20
-0.253399447551
30
0.788725152455
70
192
0
VERTEX
8
1
10
4.45563159833
20
-0.23893763815
30
3.3774010249
70
192
0
VERTEX
8
1
10
4.61314517822
20
-0.258258406064
30
-0.0326226288895
70
192
0
VERTEX
8
1
10
4.65992617998
20
-0.235797540238
30
3.98454685513
70
192
0
VERTEX
8
1
10
0
20
0
30
0
70
128
71
11
72
9
73
12
0
VERTEX
8
1
10
0
20
0
30
0
70
128
71
9
72
11
73
7
0
VERTEX
8
1
10
0
20
0
30
0
70
128
71
5
72
7
73
11
0
VERTEX
8
1
10
0
20
0
30
0
70
128
71
7
72
5
73
6
0
VERTEX
8
1
10
0
20
0
30
0
70
128
71
7
72
6
73
8
0
VERTEX
8
1
10
0
20
0
30
0
70
128
71
12
72
8
73
6
0
VERTEX
8
1
10
0
20
0
30
0
70
128
71
12
72
10
73
8
0
VERTEX
8
1
10
0
20
0
30
0
70
128
71
9
72
10
73
12
0
VERTEX
8
1
10
0
20
0
30
0
70
128
71
2
72
12
73
6
0
VERTEX
8
1
10
0
20
0
30
0
70
128
71
2
72
6
73
4
0
VERTEX
8
1
10
0
20
0
30
0
70
128
71
3
72
2
73
4
0
VERTEX
8
1
10
0
20
0
30
0
70
128
71
3
72
1
73
2
0
VERTEX
8
1
10
0
20
0
30
0
70
128
71
5
72
1
73
3
0
VERTEX
8
1
10
0
20
0
30
0
70
128
71
5
72
11
73
1
0
SEQEND
0
POLYLINE
8
0
39
0
100
AcDb3dPolyline
66
1
10
0
20
0
30
0
70
9
0
VERTEX
8
0
100
AcDb3dPolylineVertex
10
4.61515118983
20
0.0166869576781
30
-0.034609960407
0
VERTEX
8
0
100
AcDb3dPolylineVertex
10
4.61314517822
20
-0.258258406064
30
-0.0326226288895
0
VERTEX
8
0
100
AcDb3dPolylineVertex
10
4.65992617998
20
-0.235797540238
30
3.98454685513
0
VERTEX
8
0
100
AcDb3dPolylineVertex
10
4.66181171509
20
0.0174970944244
30
3.98594088064
0
SEQEND
0
POLYLINE
8
1
70
64
66
1
10
0
20
0
30
0
71
4
72
2
0
VERTEX
8
1
10
4.61314517822
20
-0.258258406064
30
-0.0326226288895
70
192
0
VERTEX
8
1
10
4.65992617998
20
-0.235797540238
30
3.98454685513
70
192
0
VERTEX
8
1
10
4.61515118983
20
0.0166869576781
30
-0.034609960407
70
192
0
VERTEX
8
1
10
4.66181171509
20
0.0174970944244
30
3.98594088064
70
192
0
VERTEX
8
1
10
0
20
0
30
0
70
128
71
3
72
2
73
4
0
VERTEX
8
1
10
0
20
0
30
0
70
128
71
3
72
1
73
2
0
SEQEND
0
POLYLINE
8
0
39
0
100
AcDb3dPolyline
66
1
10
0
20
0
30
0
70
9
0
VERTEX
8
0
100
AcDb3dPolylineVertex
10
4.86105981042
20
0.00745802285058
30
-0.0363814682577
0
VERTEX
8
0
100
AcDb3dPolylineVertex
10
4.61515118983
20
0.0166869576781
30
-0.034609960407
0
VERTEX
8
0
100
AcDb3dPolylineVertex
10
4.66181171509
20
0.0174970944244
30
3.98594088064
0
VERTEX
8
0
100
AcDb3dPolylineVertex
10
4.88710978051
20
0.00914376993286
30
4.14428177793
0
SEQEND
0
POLYLINE
8
1
70
64
66
1
10
0
20
0
30
0
71
4
72
2
0
VERTEX
8
1
10
4.61515118983
20
0.0166869576781
30
-0.034609960407
70
192
0
VERTEX
8
1
10
4.66181171509
20
0.0174970944244
30
3.98594088064
70
192
0
VERTEX
8
1
10
4.86105981042
20
0.00745802285058
30
-0.0363814682577
70
192
0
VERTEX
8
1
10
4.88710978051
20
0.00914376993286
30
4.14428177793
70
192
0
VERTEX
8
1
10
0
20
0
30
0
70
128
71
3
72
2
73
4
0
VERTEX
8
1
10
0
20
0
30
0
70
128
71
3
72
1
73
2
0
SEQEND
0
POLYLINE
8
0
39
0
100
AcDb3dPolyline
66
1
10
0
20
0
30
0
70
9
0
VERTEX
8
0
100
AcDb3dPolylineVertex
10
4.82567792016
20
3.60885715456
30
-0.0619511047474
0
VERTEX
8
0
100
AcDb3dPolylineVertex
10
4.86105981042
20
0.00745802285058
30
-0.0363814682577
0
VERTEX
8
0
100
AcDb3dPolylineVertex
10
4.88710978051
20
0.00914376993286
30
4.14428177793
0
VERTEX
8
0
100
AcDb3dPolylineVertex
10
4.85147047271
20
3.63782785191
30
4.12021983574
0
SEQEND
0
POLYLINE
8
1
70
64
66
1
10
0
20
0
30
0
71
4
72
2
0
VERTEX
8
1
10
4.86105981042
20
0.00745802285058
30
-0.0363814682577
70
192
0
VERTEX
8
1
10
4.88710978051
20
0.00914376993286
30
4.14428177793
70
192
0
VERTEX
8
1
10
4.82567792016
20
3.60885715456
30
-0.0619511047474
70
192
0
VERTEX
8
1
10
4.85147047271
20
3.63782785191
30
4.12021983574
70
192
0
VERTEX
8
1
10
0
20
0
30
0
70
128
71
3
72
1
73
4
0
VERTEX
8
1
10
0
20
0
30
0
70
128
71
4
72
1
73
2
0
SEQEND
0
POLYLINE
8
0
39
0
100
AcDb3dPolyline
66
1
10
0
20
0
30
0
70
9
0
VERTEX
8
0
100
AcDb3dPolylineVertex
10
4.12493162384
20
3.60367527618
30
-0.0566770876599
0
VERTEX
8
0
100
AcDb3dPolylineVertex
10
4.82567792016
20
3.60885715456
30
-0.0619511047474
0
VERTEX
8
0
100
AcDb3dPolylineVertex
10
4.85147047271
20
3.63782785191
30
4.12021983574
0
VERTEX
8
0
100
AcDb3dPolylineVertex
10
4.15574778907
20
3.62928229255
30
3.63125230721
0
SEQEND
0
POLYLINE
8
1
70
64
66
1
10
0
20
0
30
0
71
4
72
2
0
VERTEX
8
1
10
4.85147047271
20
3.63782785191
30
4.12021983574
70
192
0
VERTEX
8
1
10
4.82567792016
20
3.60885715456
30
-0.0619511047474
70
192
0
VERTEX
8
1
10
4.15574778907
20
3.62928229255
30
3.63125230721
70
192
0
VERTEX
8
1
10
4.12493162384
20
3.60367527618
30
-0.0566770876599
70
192
0
VERTEX
8
1
10
0
20
0
30
0
70
128
71
4
72
2
73
3
0
VERTEX
8
1
10
0
20
0
30
0
70
128
71
3
72
2
73
1
0
SEQEND
0
POLYLINE
8
0
39
0
100
AcDb3dPolyline
66
1
10
0
20
0
30
0
70
9
0
VERTEX
8
0
100
AcDb3dPolylineVertex
10
3.26388577129
20
6.89807586694
30
-0.0738740835698
0
VERTEX
8
0
100
AcDb3dPolylineVertex
10
3.25848459958
20
7.68397903843
30
-0.079471188352
0
VERTEX
8
0
100
AcDb3dPolylineVertex
10
3.10115302278
20
7.68900184441
30
-0.0783315424411
0
VERTEX
8
0
100
AcDb3dPolylineVertex
10
3.1085962708
20
6.86546850499
30
-0.0724796254361
0
SEQEND
0
POLYLINE
8
1
70
64
66
1
10
0
20
0
30
0
71
4
72
2
0
VERTEX
8
1
10
3.25848459958
20
7.68397903843
30
-0.079471188352
70
192
0
VERTEX
8
1
10
3.10115302278
20
7.68900184441
30
-0.0783315424411
70
192
0
VERTEX
8
1
10
3.26388577129
20
6.89807586694
30
-0.0738740835698
70
192
0
VERTEX
8
1
10
3.1085962708
20
6.86546850499
30
-0.0724796254361
70
192
0
VERTEX
8
1
10
0
20
0
30
0
70
128
71
2
72
4
73
3
0
VERTEX
8
1
10
0
20
0
30
0
70
128
71
2
72
3
73
1
0
SEQEND
0
POLYLINE
8
0
39
0
100
AcDb3dPolyline
66
1
10
0
20
0
30
0
70
9
0
VERTEX
8
0
100
AcDb3dPolylineVertex
10
0.0250613924313
20
0.982772062726
30
-0.00723700880978
0
VERTEX
8
0
100
AcDb3dPolylineVertex
10
3.39415407711
20
4.33231581133
30
-0.0564425725144
0
VERTEX
8
0
100
AcDb3dPolylineVertex
10
3.41688699863
20
4.35804973203
30
3.1121671717
0
VERTEX
8
0
100
AcDb3dPolylineVertex
10
0.0251330266918
20
0.985579831221
30
0.727471642111
0
SEQEND
0
POLYLINE
8
1
70
64
66
1
10
0
20
0
30
0
71
4
72
2
0
VERTEX
8
1
10
3.41688699863
20
4.35804973203
30
3.1121671717
70
192
0
VERTEX
8
1
10
3.39415407711
20
4.33231581133
30
-0.0564425725144
70
192
0
VERTEX
8
1
10
0.0251330266918
20
0.985579831221
30
0.727471642111
70
192
0
VERTEX
8
1
10
0.0250613924313
20
0.982772062726
30
-0.00723700880978
70
192
0
VERTEX
8
1
10
0
20
0
30
0
70
128
71
4
72
2
73
3
0
VERTEX
8
1
10
0
20
0
30
0
70
128
71
3
72
2
73
1
0
SEQEND
0
POLYLINE
8
0
39
0
100
AcDb3dPolyline
66
1
10
0
20
0
30
0
70
9
0
VERTEX
8
0
100
AcDb3dPolylineVertex
10
3.41688699863
20
4.35804973203
30
3.1121671717
0
VERTEX
8
0
100
AcDb3dPolylineVertex
10
4.15574778907
20
3.62928229255
30
3.63125230721
0
VERTEX
8
0
100
AcDb3dPolylineVertex
10
4.85147047271
20
3.63782785191
30
4.12021983574
0
VERTEX
8
0
100
AcDb3dPolylineVertex
10
4.88710978051
20
0.00914376993286
30
4.14428177793
0
VERTEX
8
0
100
AcDb3dPolylineVertex
10
4.66181171509
20
0.0174970944244
30
3.98594088064
0
VERTEX
8
0
100
AcDb3dPolylineVertex
10
4.65992617998
20
-0.235797540238
30
3.98454685513
0
VERTEX
8
0
100
AcDb3dPolylineVertex
10
1.22595735624
20
-0.244896136302
30
1.57109602111
0
VERTEX
8
0
100
AcDb3dPolylineVertex
10
1.22806565417
20
1.83086180883e-07
30
1.57264414713
0
VERTEX
8
0
100
AcDb3dPolylineVertex
10
-1.22555467108e-07
20
2.45049669445e-08
30
0.709539994905
0
VERTEX
8
0
100
AcDb3dPolylineVertex
10
0.0251330266918
20
0.985579831221
30
0.727471642111
0
SEQEND
0
POLYLINE
8
1
70
64
66
1
10
0
20
0
30
0
71
10
72
8
0
VERTEX
8
1
10
-1.22555467108e-07
20
2.45049669445e-08
30
0.709539994905
70
192
0
VERTEX
8
1
10
0.0251330266918
20
0.985579831221
30
0.727471642111
70
192
0
VERTEX
8
1
10
1.22595735624
20
-0.244896136302
30
1.57109602111
70
192
0
VERTEX
8
1
10
1.22806565417
20
1.83086180883e-07
30
1.57264414713
70
192
0
VERTEX
8
1
10
4.65992617998
20
-0.235797540238
30
3.98454685513
70
192
0
VERTEX
8
1
10
4.66181171509
20
0.0174970944244
30
3.98594088064
70
192
0
VERTEX
8
1
10
4.88710978051
20
0.00914376993286
30
4.14428177793
70
192
0
VERTEX
8
1
10
3.41688699863
20
4.35804973203
30
3.1121671717
70
192
0
VERTEX
8
1
10
4.15574778907
20
3.62928229255
30
3.63125230721
70
192
0
VERTEX
8
1
10
4.85147047271
20
3.63782785191
30
4.12021983574
70
192
0
VERTEX
8
1
10
0
20
0
30
0
70
128
71
6
72
5
73
4
0
VERTEX
8
1
10
0
20
0
30
0
70
128
71
9
72
6
73
4
0
VERTEX
8
1
10
0
20
0
30
0
70
128
71
10
72
6
73
9
0
VERTEX
8
1
10
0
20
0
30
0
70
128
71
7
72
6
73
10
0
VERTEX
8
1
10
0
20
0
30
0
70
128
71
8
72
9
73
4
0
VERTEX
8
1
10
0
20
0
30
0
70
128
71
4
72
2
73
8
0
VERTEX
8
1
10
0
20
0
30
0
70
128
71
4
72
1
73
2
0
VERTEX
8
1
10
0
20
0
30
0
70
128
71
5
72
3
73
4
0
SEQEND
0
POLYLINE
8
0
39
0
100
AcDb3dPolyline
66
1
10
0
20
0
30
0
70
9
0
VERTEX
8
0
100
AcDb3dPolylineVertex
10
8.76506935809
20
-0.318695219839
30
-0.0632174964859
0
VERTEX
8
0
100
AcDb3dPolylineVertex
10
8.73430044025
20
3.59216375797
30
-0.0910414498046
0
VERTEX
8
0
100
AcDb3dPolylineVertex
10
4.95049331799
20
3.60660275055
30
-0.0628677499033
0
VERTEX
8
0
100
AcDb3dPolylineVertex
10
4.98927564511
20
-0.0420836060811
30
-0.0369842456053
0
VERTEX
8
0
100
AcDb3dPolylineVertex
10
5.13611506373
20
-0.0379875771326
30
-0.0381110068654
0
VERTEX
8
0
100
AcDb3dPolylineVertex
10
5.13148094342
20
-0.281101647542
30
-0.0363325229079
0
SEQEND
0
POLYLINE
8
1
70
64
66
1
10
0
20
0
30
0
71
6
72
4
0
VERTEX
8
1
10
8.73430044025
20
3.59216375797
30
-0.0910414498046
70
192
0
VERTEX
8
1
10
8.76506935809
20
-0.318695219839
30
-0.0632174964859
70
192
0
VERTEX
8
1
10
4.95049331799
20
3.60660275055
30
-0.0628677499033
70
192
0
VERTEX
8
1
10
5.13611506373
20
-0.0379875771326
30
-0.0381110068654
70
192
0
VERTEX
8
1
10
4.98927564511
20
-0.0420836060811
30
-0.0369842456053
70
192
0
VERTEX
8
1
10
5.13148094342
20
-0.281101647542
30
-0.0363325229079
70
192
0
VERTEX
8
1
10
0
20
0
30
0
70
128
71
6
72
2
73
4
0
VERTEX
8
1
10
0
20
0
30
0
70
128
71
4
72
2
73
1
0
VERTEX
8
1
10
0
20
0
30
0
70
128
71
4
72
1
73
3
0
VERTEX
8
1
10
0
20
0
30
0
70
128
71
5
72
4
73
3
0
SEQEND
0
POLYLINE
8
0
39
0
100
AcDb3dPolyline
66
1
10
0
20
0
30
0
70
9
0
VERTEX
8
0
100
AcDb3dPolylineVertex
10
8.73430044025
20
3.59216375797
30
-0.0910414498046
0
VERTEX
8
0
100
AcDb3dPolylineVertex
10
8.76506935809
20
-0.318695219839
30
-0.0632174964859
0
VERTEX
8
0
100
AcDb3dPolylineVertex
10
8.76525124601
20
-0.306378786718
30
1.5774385991
0
VERTEX
8
0
100
AcDb3dPolylineVertex
10
8.74493667636
20
2.27601107648
30
1.57462441585
0
VERTEX
8
0
100
AcDb3dPolylineVertex
10
8.73453747726
20
3.61827300301
30
2.51404867599
0
SEQEND
0
POLYLINE
8
1
70
64
66
1
10
0
20
0
30
0
71
5
72
3
0
VERTEX
8
1
10
8.76506935809
20
-0.318695219839
30
-0.0632174964859
70
192
0
VERTEX
8
1
10
8.76525124601
20
-0.306378786718
30
1.5774385991
70
192
0
VERTEX
8
1
10
8.74493667636
20
2.27601107648
30
1.57462441585
70
192
0
VERTEX
8
1
10
8.73430044025
20
3.59216375797
30
-0.0910414498046
70
192
0
VERTEX
8
1
10
8.73453747726
20
3.61827300301
30
2.51404867599
70
192
0
VERTEX
8
1
10
0
20
0
30
0
70
128
71
4
72
3
73
5
0
VERTEX
8
1
10
0
20
0
30
0
70
128
71
4
72
1
73
3
0
VERTEX
8
1
10
0
20
0
30
0
70
128
71
3
72
1
73
2
0
SEQEND
0
POLYLINE
8
0
39
0
100
AcDb3dPolyline
66
1
10
0
20
0
30
0
70
9
0
VERTEX
8
0
100
AcDb3dPolylineVertex
10
7.42292067159
20
3.62310001609
30
2.50603764015
0
VERTEX
8
0
100
AcDb3dPolylineVertex
10
8.73453747726
20
3.61827300301
30
2.51404867599
0
VERTEX
8
0
100
AcDb3dPolylineVertex
10
8.74493667636
20
2.27601107648
30
1.57462441585
0
SEQEND
0
POLYLINE
8
1
70
64
66
1
10
0
20
0
30
0
71
3
72
1
0
VERTEX
8
1
10
7.42292067159
20
3.62310001609
30
2.50603764015
70
192
0
VERTEX
8
1
10
8.73453747726
20
3.61827300301
30
2.51404867599
70
192
0
VERTEX
8
1
10
8.74493667636
20
2.27601107648
30
1.57462441585
70
192
0
VERTEX
8
1
10
0
20
0
30
0
70
128
71
3
72
1
73
2
0
SEQEND
0
POLYLINE
8
0
39
0
100
AcDb3dPolyline
66
1
10
0
20
0
30
0
70
9
0
VERTEX
8
0
100
AcDb3dPolylineVertex
10
7.24761790742
20
3.72738220914
30
-0.0809010853206
0
VERTEX
8
0
100
AcDb3dPolylineVertex
10
7.2642807605
20
3.74628925331
30
1.88203326859
0
VERTEX
8
0
100
AcDb3dPolylineVertex
10
7.25538249866
20
3.6175897426
30
1.89370096087
0
VERTEX
8
0
100
AcDb3dPolylineVertex
10
7.23857939555
20
3.59787171955
30
-0.0799045487076
0
SEQEND
0
POLYLINE
8
1
70
64
66
1
10
0
20
0
30
0
71
4
72
2
0
VERTEX
8
1
10
7.2642807605
20
3.74628925331
30
1.88203326859
70
192
0
VERTEX
8
1
10
7.24761790742
20
3.72738220914
30
-0.0809010853206
70
192
0
VERTEX
8
1
10
7.25538249866
20
3.6175897426
30
1.89370096087
70
192
0
VERTEX
8
1
10
7.23857939555
20
3.59787171955
30
-0.0799045487076
70
192
0
VERTEX
8
1
10
0
20
0
30
0
70
128
71
4
72
2
73
1
0
VERTEX
8
1
10
0
20
0
30
0
70
128
71
4
72
1
73
3
0
SEQEND
0
POLYLINE
8
0
39
0
100
AcDb3dPolyline
66
1
10
0
20
0
30
0
70
9
0
VERTEX
8
0
100
AcDb3dPolylineVertex
10
8.74493667636
20
2.27601107648
30
1.57462441585
0
VERTEX
8
0
100
AcDb3dPolylineVertex
10
8.76525124601
20
-0.306378786718
30
1.5774385991
0
VERTEX
8
0
100
AcDb3dPolylineVertex
10
5.56664679353
20
-0.256382537867
30
3.85244001496
0
VERTEX
8
0
100
AcDb3dPolylineVertex
10
5.50913750474
20
3.64390361127
30
3.86727329912
0
VERTEX
8
0
100
AcDb3dPolylineVertex
10
7.42292067159
20
3.62310001609
30
2.50603764015
0
SEQEND
0
POLYLINE
8
1
70
64
66
1
10
0
20
0
30
0
71
5
72
3
0
VERTEX
8
1
10
5.56664679353
20
-0.256382537867
30
3.85244001496
70
192
0
VERTEX
8
1
10
5.50913750474
20
3.64390361127
30
3.86727329912
70
192
0
VERTEX
8
1
10
8.76525124601
20
-0.306378786718
30
1.5774385991
70
192
0
VERTEX
8
1
10
7.42292067159
20
3.62310001609
30
2.50603764015
70
192
0
VERTEX
8
1
10
8.74493667636
20
2.27601107648
30
1.57462441585
70
192
0
VERTEX
8
1
10
0
20
0
30
0
70
128
71
5
72
3
73
1
0
VERTEX
8
1
10
0
20
0
30
0
70
128
71
4
72
5
73
1
0
VERTEX
8
1
10
0
20
0
30
0
70
128
71
4
72
1
73
2
0
SEQEND
0
POLYLINE
8
0
39
0
100
AcDb3dPolyline
66
1
10
0
20
0
30
0
70
9
0
VERTEX
8
0
100
AcDb3dPolylineVertex
10
5.13148094342
20
-0.281101647542
30
-0.0363325229079
0
VERTEX
8
0
100
AcDb3dPolylineVertex
10
5.13611506373
20
-0.0379875771326
30
-0.0381110068654
0
VERTEX
8
0
100
AcDb3dPolylineVertex
10
5.14259620443
20
0.00235528397445
30
3.86118237065
0
VERTEX
8
0
100
AcDb3dPolylineVertex
10
5.13774562688
20
-0.251909160647
30
3.86037413929
0
SEQEND
0
POLYLINE
8
1
70
64
66
1
10
0
20
0
30
0
71
4
72
2
0
VERTEX
8
1
10
5.14259620443
20
0.00235528397445
30
3.86118237065
70
192
0
VERTEX
8
1
10
5.13611506373
20
-0.0379875771326
30
-0.0381110068654
70
192
0
VERTEX
8
1
10
5.13774562688
20
-0.251909160647
30
3.86037413929
70
192
0
VERTEX
8
1
10
5.13148094342
20
-0.281101647542
30
-0.0363325229079
70
192
0
VERTEX
8
1
10
0
20
0
30
0
70
128
71
4
72
2
73
3
0
VERTEX
8
1
10
0
20
0
30
0
70
128
71
2
72
1
73
3
0
SEQEND
0
POLYLINE
8
0
39
0
100
AcDb3dPolyline
66
1
10
0
20
0
30
0
70
9
0
VERTEX
8
0
100
AcDb3dPolylineVertex
10
4.98927564511
20
-0.0420836060811
30
-0.0369842456053
0
VERTEX
8
0
100
AcDb3dPolylineVertex
10
4.95049331799
20
3.60660275055
30
-0.0628677499033
0
VERTEX
8
0
100
AcDb3dPolylineVertex
10
4.9730995459
20
3.64600854063
30
3.87717707
0
VERTEX
8
0
100
AcDb3dPolylineVertex
10
5.01163683424
20
-0.00128369028045
30
3.86358739681
0
SEQEND
0
POLYLINE
8
1
70
64
66
1
10
0
20
0
30
0
71
4
72
2
0
VERTEX
8
1
10
4.9730995459
20
3.64600854063
30
3.87717707
70
192
0
VERTEX
8
1
10
4.95049331799
20
3.60660275055
30
-0.0628677499033
70
192
0
VERTEX
8
1
10
5.01163683424
20
-0.00128369028045
30
3.86358739681
70
192
0
VERTEX
8
1
10
4.98927564511
20
-0.0420836060811
30
-0.0369842456053
70
192
0
VERTEX
8
1
10
0
20
0
30
0
70
128
71
4
72
2
73
3
0
VERTEX
8
1
10
0
20
0
30
0
70
128
71
2
72
1
73
3
0
SEQEND
0
POLYLINE
8
0
39
0
100
AcDb3dPolyline
66
1
10
0
20
0
30
0
70
9
0
VERTEX
8
0
100
AcDb3dPolylineVertex
10
5.56664679353
20
-0.256382537867
30
3.85244001496
0
VERTEX
8
0
100
AcDb3dPolylineVertex
10
5.13774562688
20
-0.251909160647
30
3.86037413929
0
VERTEX
8
0
100
AcDb3dPolylineVertex
10
5.14259620443
20
0.00235528397445
30
3.86118237065
0
VERTEX
8
0
100
AcDb3dPolylineVertex
10
5.01163683424
20
-0.00128369028045
30
3.86358739681
0
VERTEX
8
0
100
AcDb3dPolylineVertex
10
4.9730995459
20
3.64600854063
30
3.87717707
0
VERTEX
8
0
100
AcDb3dPolylineVertex
10
5.50913750474
20
3.64390361127
30
3.86727329912
0
SEQEND
0
POLYLINE
8
1
70
64
66
1
10
0
20
0
30
0
71
6
72
4
0
VERTEX
8
1
10
5.13774562688
20
-0.251909160647
30
3.86037413929
70
192
0
VERTEX
8
1
10
5.01163683424
20
-0.00128369028045
30
3.86358739681
70
192
0
VERTEX
8
1
10
5.14259620443
20
0.00235528397445
30
3.86118237065
70
192
0
VERTEX
8
1
10
5.56664679353
20
-0.256382537867
30
3.85244001496
70
192
0
VERTEX
8
1
10
4.9730995459
20
3.64600854063
30
3.87717707
70
192
0
VERTEX
8
1
10
5.50913750474
20
3.64390361127
30
3.86727329912
70
192
0
VERTEX
8
1
10
0
20
0
30
0
70
128
71
6
72
4
73
3
0
VERTEX
8
1
10
0
20
0
30
0
70
128
71
6
72
3
73
5
0
VERTEX
8
1
10
0
20
0
30
0
70
128
71
3
72
2
73
5
0
VERTEX
8
1
10
0
20
0
30
0
70
128
71
4
72
1
73
3
0
SEQEND
0
POLYLINE
8
0
39
0
100
AcDb3dPolyline
66
1
10
0
20
0
30
0
70
9
0
VERTEX
8
0
100
AcDb3dPolylineVertex
10
5.13611506373
20
-0.0379875771326
30
-0.0381110068654
0
VERTEX
8
0
100
AcDb3dPolylineVertex
10
4.98927564511
20
-0.0420836060811
30
-0.0369842456053
0
VERTEX
8
0
100
AcDb3dPolylineVertex
10
5.01163683424
20
-0.00128369028045
30
3.86358739681
0
VERTEX
8
0
100
AcDb3dPolylineVertex
10
5.14259620443
20
0.00235528397445
30
3.86118237065
0
SEQEND
0
POLYLINE
8
1
70
64
66
1
10
0
20
0
30
0
71
4
72
2
0
VERTEX
8
1
10
4.98927564511
20
-0.0420836060811
30
-0.0369842456053
70
192
0
VERTEX
8
1
10
5.01163683424
20
-0.00128369028045
30
3.86358739681
70
192
0
VERTEX
8
1
10
5.13611506373
20
-0.0379875771326
30
-0.0381110068654
70
192
0
VERTEX
8
1
10
5.14259620443
20
0.00235528397445
30
3.86118237065
70
192
0
VERTEX
8
1
10
0
20
0
30
0
70
128
71
3
72
2
73
4
0
VERTEX
8
1
10
0
20
0
30
0
70
128
71
3
72
1
73
2
0
SEQEND
0
POLYLINE
8
0
39
0
100
AcDb3dPolyline
66
1
10
0
20
0
30
0
70
9
0
VERTEX
8
0
100
AcDb3dPolylineVertex
10
8.76506935809
20
-0.318695219839
30
-0.0632174964859
0
VERTEX
8
0
100
AcDb3dPolylineVertex
10
5.13148094342
20
-0.281101647542
30
-0.0363325229079
0
VERTEX
8
0
100
AcDb3dPolylineVertex
10
5.13774562688
20
-0.251909160647
30
3.86037413929
0
VERTEX
8
0
100
AcDb3dPolylineVertex
10
5.56664679353
20
-0.256382537867
30
3.85244001496
0
VERTEX
8
0
100
AcDb3dPolylineVertex
10
8.76525124601
20
-0.306378786718
30
1.5774385991
0
SEQEND
0
POLYLINE
8
0
39
0
100
AcDb3dPolyline
66
1
10
0
20
0
30
0
70
9
0
VERTEX
8
0
100
AcDb3dPolylineVertex
10
7.91852475029
20
-0.297003136202
30
1.66563798819
0
VERTEX
8
0
100
AcDb3dPolylineVertex
10
6.88775939799
20
-0.280898801622
30
2.397793958
0
VERTEX
8
0
100
AcDb3dPolylineVertex
10
6.88272106534
20
-0.293030077122
30
0.775139627363
0
VERTEX
8
0
100
AcDb3dPolylineVertex
10
7.90935228123
20
-0.303646915076
30
0.768218979123
0
SEQEND
0
POLYLINE
8
0
39
0
100
AcDb3dPolyline
66
1
10
0
20
0
30
0
70
9
0
VERTEX
8
0
100
AcDb3dPolylineVertex
10
5.57016373391
20
-0.26022058032
30
3.34605531742
0
VERTEX
8
0
100
AcDb3dPolylineVertex
10
5.56487058494
20
-0.279456577879
30
0.776807713575
0
VERTEX
8
0
100
AcDb3dPolylineVertex
10
6.59930479554
20
-0.290148956667
30
0.770472397804
0
VERTEX
8
0
100
AcDb3dPolylineVertex
10
6.61554392432
20
-0.276592400462
30
2.59834995644
0
SEQEND
0
POLYLINE
8
1
70
64
66
1
10
0
20
0
30
0
71
13
72
15
0
VERTEX
8
1
10
5.13148094342
20
-0.281101647542
30
-0.0363325229079
70
192
0
VERTEX
8
1
10
5.13774562688
20
-0.251909160647
30
3.86037413929
70
192
0
VERTEX
8
1
10
5.56487058494
20
-0.279456577879
30
0.776807713575
70
192
0
VERTEX
8
1
10
5.57016373391
20
-0.26022058032
30
3.34605531742
70
192
0
VERTEX
8
1
10
5.56664679353
20
-0.256382537867
30
3.85244001496
70
192
0
VERTEX
8
1
10
6.59930479554
20
-0.290148956667
30
0.770472397804
70
192
0
VERTEX
8
1
10
6.61554392432
20
-0.276592400462
30
2.59834995644
70
192
0
VERTEX
8
1
10
6.88272106534
20
-0.293030077122
30
0.775139627363
70
192
0
VERTEX
8
1
10
6.88775939799
20
-0.280898801622
30
2.397793958
70
192
0
VERTEX
8
1
10
7.90935228123
20
-0.303646915076
30
0.768218979123
70
192
0
VERTEX
8
1
10
7.91852475029
20
-0.297003136202
30
1.66563798819
70
192
0
VERTEX
8
1
10
8.76506935809
20
-0.318695219839
30
-0.0632174964859
70
192
0
VERTEX
8
1
10
8.76525124601
20
-0.306378786718
30
1.5774385991
70
192
0
VERTEX
8
1
10
0
20
0
30
0
70
128
71
12
72
10
73
13
0
VERTEX
8
1
10
0
20
0
30
0
70
128
71
10
72
12
73
8
0
VERTEX
8
1
10
0
20
0
30
0
70
128
71
8
72
12
73
1
0
VERTEX
8
1
10
0
20
0
30
0
70
128
71
8
72
1
73
6
0
VERTEX
8
1
10
0
20
0
30
0
70
128
71
9
72
8
73
6
0
VERTEX
8
1
10
0
20
0
30
0
70
128
71
7
72
9
73
6
0
VERTEX
8
1
10
0
20
0
30
0
70
128
71
7
72
5
73
9
0
VERTEX
8
1
10
0
20
0
30
0
70
128
71
5
72
7
73
4
0
VERTEX
8
1
10
0
20
0
30
0
70
128
71
5
72
4
73
2
0
VERTEX
8
1
10
0
20
0
30
0
70
128
71
4
72
3
73
2
0
VERTEX
8
1
10
0
20
0
30
0
70
128
71
3
72
1
73
2
0
VERTEX
8
1
10
0
20
0
30
0
70
128
71
6
72
1
73
3
0
VERTEX
8
1
10
0
20
0
30
0
70
128
71
5
72
13
73
9
0
VERTEX
8
1
10
0
20
0
30
0
70
128
71
13
72
11
73
9
0
VERTEX
8
1
10
0
20
0
30
0
70
128
71
13
72
10
73
11
0
SEQEND
0
POLYLINE
8
0
39
0
100
AcDb3dPolyline
66
1
10
0
20
0
30
0
70
9
0
VERTEX
8
0
100
AcDb3dPolylineVertex
10
13.3070783401
20
5.28875006637
30
-0.137385240775
0
VERTEX
8
0
100
AcDb3dPolylineVertex
10
13.0458241173
20
5.27255956338
30
-0.135316614447
0
VERTEX
8
0
100
AcDb3dPolylineVertex
10
13.0186488042
20
6.30758310995
30
-0.142538086441
0
VERTEX
8
0
100
AcDb3dPolylineVertex
10
11.159260195
20
6.30692275808
30
-0.1286376817
0
VERTEX
8
0
100
AcDb3dPolylineVertex
10
11.1636222942
20
5.9058728528
30
-0.12579338773
0
VERTEX
8
0
100
AcDb3dPolylineVertex
10
8.86026125926
20
4.04011223228
30
-0.0951961123037
0
VERTEX
8
0
100
AcDb3dPolylineVertex
10
8.88261690608
20
2.05805681795
30
-0.0811451731878
0
VERTEX
8
0
100
AcDb3dPolylineVertex
10
9.07493997238
20
2.06077109161
30
-0.0826019485425
0
VERTEX
8
0
100
AcDb3dPolylineVertex
10
9.10584315297
20
0.0982438810126
30
-0.0687550842053
0
VERTEX
8
0
100
AcDb3dPolylineVertex
10
13.5098391873
20
0.0676949956997
30
-0.101448100155
0
SEQEND
0
POLYLINE
8
1
70
64
66
1
10
0
20
0
30
0
71
10
72
8
0
VERTEX
8
1
10
13.0186488042
20
6.30758310995
30
-0.142538086441
70
192
0
VERTEX
8
1
10
13.3070783401
20
5.28875006637
30
-0.137385240775
70
192
0
VERTEX
8
1
10
13.0458241173
20
5.27255956338
30
-0.135316614447
70
192
0
VERTEX
8
1
10
11.159260195
20
6.30692275808
30
-0.1286376817
70
192
0
VERTEX
8
1
10
11.1636222942
20
5.9058728528
30
-0.12579338773
70
192
0
VERTEX
8
1
10
13.5098391873
20
0.0676949956997
30
-0.101448100155
70
192
0
VERTEX
8
1
10
8.86026125926
20
4.04011223228
30
-0.0951961123037
70
192
0
VERTEX
8
1
10
9.07493997238
20
2.06077109161
30
-0.0826019485425
70
192
0
VERTEX
8
1
10
8.88261690608
20
2.05805681795
30
-0.0811451731878
70
192
0
VERTEX
8
1
10
9.10584315297
20
0.0982438810126
30
-0.0687550842053
70
192
0
VERTEX
8
1
10
0
20
0
30
0
70
128
71
10
72
6
73
8
0
VERTEX
8
1
10
0
20
0
30
0
70
128
71
8
72
6
73
3
0
VERTEX
8
1
10
0
20
0
30
0
70
128
71
7
72
8
73
3
0
VERTEX
8
1
10
0
20
0
30
0
70
128
71
9
72
8
73
7
0
VERTEX
8
1
10
0
20
0
30
0
70
128
71
7
72
3
73
5
0
VERTEX
8
1
10
0
20
0
30
0
70
128
71
3
72
1
73
5
0
VERTEX
8
1
10
0
20
0
30
0
70
128
71
5
72
1
73
4
0
VERTEX
8
1
10
0
20
0
30
0
70
128
71
6
72
2
73
3
0
SEQEND
0
POLYLINE
8
0
39
0
100
AcDb3dPolyline
66
1
10
0
20
0
30
0
70
9
0
VERTEX
8
0
100
AcDb3dPolylineVertex
10
13.0458241173
20
5.27255956338
30
-0.135316614447
0
VERTEX
8
0
100
AcDb3dPolylineVertex
10
13.3070783401
20
5.28875006637
30
-0.137385240775
0
VERTEX
8
0
100
AcDb3dPolylineVertex
10
13.3117902799
20
5.31470598422
30
3.67869444086
0
VERTEX
8
0
100
AcDb3dPolylineVertex
10
13.0617168131
20
5.2991190428
30
3.66734986856
0
SEQEND
0
POLYLINE
8
1
70
64
66
1
10
0
20
0
30
0
71
4
72
2
0
VERTEX
8
1
10
13.3117902799
20
5.31470598422
30
3.67869444086
70
192
0
VERTEX
8
1
10
13.3070783401
20
5.28875006637
30
-0.137385240775
70
192
0
VERTEX
8
1
10
13.0617168131
20
5.2991190428
30
3.66734986856
70
192
0
VERTEX
8
1
10
13.0458241173
20
5.27255956338
30
-0.135316614447
70
192
0
VERTEX
8
1
10
0
20
0
30
0
70
128
71
4
72
2
73
3
0
VERTEX
8
1
10
0
20
0
30
0
70
128
71
3
72
2
73
1
0
SEQEND
0
POLYLINE
8
0
39
0
100
AcDb3dPolyline
66
1
10
0
20
0
30
0
70
9
0
VERTEX
8
0
100
AcDb3dPolylineVertex
10
10.6293456624
20
5.65251107687
30
1.85177578935
0
VERTEX
8
0
100
AcDb3dPolylineVertex
10
10.6202496609
20
5.63459611727
30
-0.119786774573
0
VERTEX
8
0
100
AcDb3dPolylineVertex
10
10.7116692803
20
5.53978312582
30
-0.119789764951
0
VERTEX
8
0
100
AcDb3dPolylineVertex
10
10.7191209876
20
5.55955508731
30
1.86271729568
0
SEQEND
0
POLYLINE
8
1
70
64
66
1
10
0
20
0
30
0
71
4
72
2
0
VERTEX
8
1
10
10.7116692803
20
5.53978312582
30
-0.119789764951
70
192
0
VERTEX
8
1
10
10.7191209876
20
5.55955508731
30
1.86271729568
70
192
0
VERTEX
8
1
10
10.6202496609
20
5.63459611727
30
-0.119786774573
70
192
0
VERTEX
8
1
10
10.6293456624
20
5.65251107687
30
1.85177578935
70
192
0
VERTEX
8
1
10
0
20
0
30
0
70
128
71
4
72
3
73
1
0
VERTEX
8
1
10
0
20
0
30
0
70
128
71
2
72
4
73
1
0
SEQEND
0
POLYLINE
8
0
39
0
100
AcDb3dPolyline
66
1
10
0
20
0
30
0
70
9
0
VERTEX
8
0
100
AcDb3dPolylineVertex
10
11.159260195
20
6.30692275808
30
-0.1286376817
0
VERTEX
8
0
100
AcDb3dPolylineVertex
10
13.0186488042
20
6.30758310995
30
-0.142538086441
0
VERTEX
8
0
100
AcDb3dPolylineVertex
10
13.035737677
20
6.33542289978
30
3.94202257714
0
VERTEX
8
0
100
AcDb3dPolylineVertex
10
11.1789685237
20
6.33487083431
30
3.97162656919
0
SEQEND
0
POLYLINE
8
1
70
64
66
1
10
0
20
0
30
0
71
4
72
2
0
VERTEX
8
1
10
13.035737677
20
6.33542289978
30
3.94202257714
70
192
0
VERTEX
8
1
10
13.0186488042
20
6.30758310995
30
-0.142538086441
70
192
0
VERTEX
8
1
10
11.1789685237
20
6.33487083431
30
3.97162656919
70
192
0
VERTEX
8
1
10
11.159260195
20
6.30692275808
30
-0.1286376817
70
192
0
VERTEX
8
1
10
0
20
0
30
0
70
128
71
4
72
2
73
1
0
VERTEX
8
1
10
0
20
0
30
0
70
128
71
4
72
1
73
3
0
SEQEND
0
POLYLINE
8
0
39
0
100
AcDb3dPolyline
66
1
10
0
20
0
30
0
70
9
0
VERTEX
8
0
100
AcDb3dPolylineVertex
10
10.9717370101
20
5.77894006419
30
3.98998369735
0
VERTEX
8
0
100
AcDb3dPolylineVertex
10
13.0514920904
20
5.73736971246
30
3.95796687593
0
VERTEX
8
0
100
AcDb3dPolylineVertex
10
13.0617168131
20
5.2991190428
30
3.66734986856
0
VERTEX
8
0
100
AcDb3dPolylineVertex
10
13.3117902799
20
5.31470598422
30
3.67869444086
0
VERTEX
8
0
100
AcDb3dPolylineVertex
10
13.5098118953
20
0.0743957573129
30
0.0538332974261
0
VERTEX
8
0
100
AcDb3dPolylineVertex
10
9.10577103669
20
0.103991096313
30
0.0644243278931
0
VERTEX
8
0
100
AcDb3dPolylineVertex
10
9.07455330525
20
2.09858576821
30
1.44423704527
0
VERTEX
8
0
100
AcDb3dPolylineVertex
10
8.88871854249
20
2.09587133004
30
1.44194214291
0
VERTEX
8
0
100
AcDb3dPolylineVertex
10
8.87236436129
20
4.07002900118
30
2.80764986148
0
SEQEND
0
POLYLINE
8
0
39
0
100
AcDb3dPolyline
66
1
10
0
20
0
30
0
70
9
0
VERTEX
8
0
100
AcDb3dPolylineVertex
10
12.1278982201
20
2.79367407364
30
1.93195910863
0
VERTEX
8
0
100
AcDb3dPolylineVertex
10
11.5402852155
20
2.79115356937
30
1.92889666818
0
VERTEX
8
0
100
AcDb3dPolylineVertex
10
11.5342642515
20
1.53220407664
30
1.05792794476
0
VERTEX
8
0
100
AcDb3dPolylineVertex
10
12.123361036
20
1.53013017968
30
1.05781529827
0
SEQEND
0
POLYLINE
8
0
39
0
100
AcDb3dPolyline
66
1
10
0
20
0
30
0
70
9
0
VERTEX
8
0
100
AcDb3dPolylineVertex
10
10.2074982798
20
2.80819256579
30
1.93769368502
0
VERTEX
8
0
100
AcDb3dPolylineVertex
10
10.1939511421
20
1.54317299259
30
1.06250820819
0
VERTEX
8
0
100
AcDb3dPolylineVertex
10
10.8089542218
20
1.53769797845
30
1.06010079161
0
VERTEX
8
0
100
AcDb3dPolylineVertex
10
10.8213392409
20
2.79662141428
30
1.93106616879
0
SEQEND
0
POLYLINE
8
0
39
0
100
AcDb3dPolyline
66
1
10
0
20
0
30
0
70
9
0
VERTEX
8
0
100
AcDb3dPolylineVertex
10
9.46739195006
20
2.82669810165
30
1.94883497055
0
VERTEX
8
0
100
AcDb3dPolylineVertex
10
9.4603481287
20
1.54760617463
30
1.06392919174
0
VERTEX
8
0
100
AcDb3dPolylineVertex
10
10.0598427846
20
1.54397394958
30
1.0627613585
0
VERTEX
8
0
100
AcDb3dPolylineVertex
10
10.0635503052
20
2.80410743818
30
1.93454427113
0
SEQEND
0
POLYLINE
8
1
70
64
66
1
10
0
20
0
30
0
71
21
72
25
0
VERTEX
8
1
10
10.9717370101
20
5.77894006419
30
3.98998369735
70
192
0
VERTEX
8
1
10
8.87236436129
20
4.07002900118
30
2.80764986148
70
192
0
VERTEX
8
1
10
13.0514920904
20
5.73736971246
30
3.95796687593
70
192
0
VERTEX
8
1
10
13.0617168131
20
5.2991190428
30
3.66734986856
70
192
0
VERTEX
8
1
10
13.3117902799
20
5.31470598422
30
3.67869444086
70
192
0
VERTEX
8
1
10
9.46739195006
20
2.82669810165
30
1.94883497055
70
192
0
VERTEX
8
1
10
10.0635503052
20
2.80410743818
30
1.93454427113
70
192
0
VERTEX
8
1
10
8.88871854249
20
2.09587133004
30
1.44194214291
70
192
0
VERTEX
8
1
10
10.2074982798
20
2.80819256579
30
1.93769368502
70
192
0
VERTEX
8
1
10
9.07455330525
20
2.09858576821
30
1.44423704527
70
192
0
VERTEX
8
1
10
10.8213392409
20
2.79662141428
30
1.93106616879
70
192
0
VERTEX
8
1
10
11.5402852155
20
2.79115356937
30
1.92889666818
70
192
0
VERTEX
8
1
10
9.4603481287
20
1.54760617463
30
1.06392919174
70
192
0
VERTEX
8
1
10
12.1278982201
20
2.79367407364
30
1.93195910863
70
192
0
VERTEX
8
1
10
10.0598427846
20
1.54397394958
30
1.0627613585
70
192
0
VERTEX
8
1
10
10.1939511421
20
1.54317299259
30
1.06250820819
70
192
0
VERTEX
8
1
10
10.8089542218
20
1.53769797845
30
1.06010079161
70
192
0
VERTEX
8
1
10
11.5342642515
20
1.53220407664
30
1.05792794476
70
192
0
VERTEX
8
1
10
9.10577103669
20
0.103991096313
30
0.0644243278931
70
192
0
VERTEX
8
1
10
12.123361036
20
1.53013017968
30
1.05781529827
70
192
0
VERTEX
8
1
10
13.5098118953
20
0.0743957573129
30
0.0538332974261
70
192
0
VERTEX
8
1
10
0
20
0
30
0
70
128
71
21
72
19
73
18
0
VERTEX
8
1
10
0
20
0
30
0
70
128
71
18
72
20
73
21
0
VERTEX
8
1
10
0
20
0
30
0
70
128
71
21
72
20
73
14
0
VERTEX
8
1
10
0
20
0
30
0
70
128
71
5
72
21
73
14
0
VERTEX
8
1
10
0
20
0
30
0
70
128
71
5
72
14
73
4
0
VERTEX
8
1
10
0
20
0
30
0
70
128
71
14
72
12
73
4
0
VERTEX
8
1
10
0
20
0
30
0
70
128
71
4
72
12
73
1
0
VERTEX
8
1
10
0
20
0
30
0
70
128
71
4
72
1
73
3
0
VERTEX
8
1
10
0
20
0
30
0
70
128
71
1
72
12
73
11
0
VERTEX
8
1
10
0
20
0
30
0
70
128
71
1
72
11
73
9
0
VERTEX
8
1
10
0
20
0
30
0
70
128
71
1
72
9
73
2
0
VERTEX
8
1
10
0
20
0
30
0
70
128
71
2
72
9
73
7
0
VERTEX
8
1
10
0
20
0
30
0
70
128
71
7
72
6
73
2
0
VERTEX
8
1
10
0
20
0
30
0
70
128
71
6
72
8
73
2
0
VERTEX
8
1
10
0
20
0
30
0
70
128
71
10
72
8
73
6
0
VERTEX
8
1
10
0
20
0
30
0
70
128
71
13
72
10
73
6
0
VERTEX
8
1
10
0
20
0
30
0
70
128
71
13
72
19
73
10
0
VERTEX
8
1
10
0
20
0
30
0
70
128
71
19
72
13
73
15
0
VERTEX
8
1
10
0
20
0
30
0
70
128
71
19
72
15
73
16
0
VERTEX
8
1
10
0
20
0
30
0
70
128
71
19
72
16
73
17
0
VERTEX
8
1
10
0
20
0
30
0
70
128
71
19
72
17
73
18
0
VERTEX
8
1
10
0
20
0
30
0
70
128
71
18
72
17
73
11
0
VERTEX
8
1
10
0
20
0
30
0
70
128
71
18
72
11
73
12
0
VERTEX
8
1
10
0
20
0
30
0
70
128
71
16
72
15
73
9
0
VERTEX
8
1
10
0
20
0
30
0
70
128
71
15
72
7
73
9
0
SEQEND
0
POLYLINE
8
0
39
0
100
AcDb3dPolyline
66
1
10
0
20
0
30
0
70
9
0
VERTEX
8
0
100
AcDb3dPolylineVertex
10
13.0186488042
20
6.30758310995
30
-0.142538086441
0
VERTEX
8
0
100
AcDb3dPolylineVertex
10
13.0458241173
20
5.27255956338
30
-0.135316614447
0
VERTEX
8
0
100
AcDb3dPolylineVertex
10
13.0617168131
20
5.2991190428
30
3.66734986856
0
VERTEX
8
0
100
AcDb3dPolylineVertex
10
13.0514920904
20
5.73736971246
30
3.95796687593
0
VERTEX
8
0
100
AcDb3dPolylineVertex
10
13.035737677
20
6.33542289978
30
3.94202257714
0
SEQEND
0
POLYLINE
8
1
70
64
66
1
10
0
20
0
30
0
71
5
72
3
0
VERTEX
8
1
10
13.0458241173
20
5.27255956338
30
-0.135316614447
70
192
0
VERTEX
8
1
10
13.0617168131
20
5.2991190428
30
3.66734986856
70
192
0
VERTEX
8
1
10
13.0514920904
20
5.73736971246
30
3.95796687593
70
192
0
VERTEX
8
1
10
13.0186488042
20
6.30758310995
30
-0.142538086441
70
192
0
VERTEX
8
1
10
13.035737677
20
6.33542289978
30
3.94202257714
70
192
0
VERTEX
8
1
10
0
20
0
30
0
70
128
71
4
72
2
73
5
0
VERTEX
8
1
10
0
20
0
30
0
70
128
71
4
72
1
73
2
0
VERTEX
8
1
10
0
20
0
30
0
70
128
71
5
72
2
73
3
0
SEQEND
0
POLYLINE
8
0
39
0
100
AcDb3dPolyline
66
1
10
0
20
0
30
0
70
9
0
VERTEX
8
0
100
AcDb3dPolylineVertex
10
8.88261690608
20
2.05805681795
30
-0.0811451731878
0
VERTEX
8
0
100
AcDb3dPolylineVertex
10
8.86026125926
20
4.04011223228
30
-0.0951961123037
0
VERTEX
8
0
100
AcDb3dPolylineVertex
10
8.87236436129
20
4.07002900118
30
2.80764986148
0
VERTEX
8
0
100
AcDb3dPolylineVertex
10
8.88871854249
20
2.09587133004
30
1.44194214291
0
SEQEND
0
POLYLINE
8
1
70
64
66
1
10
0
20
0
30
0
71
4
72
2
0
VERTEX
8
1
10
8.87236436129
20
4.07002900118
30
2.80764986148
70
192
0
VERTEX
8
1
10
8.86026125926
20
4.04011223228
30
-0.0951961123037
70
192
0
VERTEX
8
1
10
8.88871854249
20
2.09587133004
30
1.44194214291
70
192
0
VERTEX
8
1
10
8.88261690608
20
2.05805681795
30
-0.0811451731878
70
192
0
VERTEX
8
1
10
0
20
0
30
0
70
128
71
4
72
2
73
3
0
VERTEX
8
1
10
0
20
0
30
0
70
128
71
3
72
2
73
1
0
SEQEND
0
POLYLINE
8
0
39
0
100
AcDb3dPolyline
66
1
10
0
20
0
30
0
70
9
0
VERTEX
8
0
100
AcDb3dPolylineVertex
10
9.07493997238
20
2.06077109161
30
-0.0826019485425
0
VERTEX
8
0
100
AcDb3dPolylineVertex
10
8.88261690608
20
2.05805681795
30
-0.0811451731878
0
VERTEX
8
0
100
AcDb3dPolylineVertex
10
8.88871854249
20
2.09587133004
30
1.44194214291
0
VERTEX
8
0
100
AcDb3dPolylineVertex
10
9.07455330525
20
2.09858576821
30
1.44423704527
0
SEQEND
0
POLYLINE
8
1
70
64
66
1
10
0
20
0
30
0
71
4
72
2
0
VERTEX
8
1
10
8.88261690608
20
2.05805681795
30
-0.0811451731878
70
192
0
VERTEX
8
1
10
8.88871854249
20
2.09587133004
30
1.44194214291
70
192
0
VERTEX
8
1
10
9.07493997238
20
2.06077109161
30
-0.0826019485425
70
192
0
VERTEX
8
1
10
9.07455330525
20
2.09858576821
30
1.44423704527
70
192
0
VERTEX
8
1
10
0
20
0
30
0
70
128
71
4
72
3
73
2
0
VERTEX
8
1
10
0
20
0
30
0
70
128
71
3
72
1
73
2
0
SEQEND
0
POLYLINE
8
0
39
0
100
AcDb3dPolyline
66
1
10
0
20
0
30
0
70
9
0
VERTEX
8
0
100
AcDb3dPolylineVertex
10
9.10584315297
20
0.0982438810126
30
-0.0687550842053
0
VERTEX
8
0
100
AcDb3dPolylineVertex
10
9.07493997238
20
2.06077109161
30
-0.0826019485425
0
VERTEX
8
0
100
AcDb3dPolylineVertex
10
9.07455330525
20
2.09858576821
30
1.44423704527
0
VERTEX
8
0
100
AcDb3dPolylineVertex
10
9.10577103669
20
0.103991096313
30
0.0644243278931
0
SEQEND
0
POLYLINE
8
1
70
64
66
1
10
0
20
0
30
0
71
4
72
2
0
VERTEX
8
1
10
9.07455330525
20
2.09858576821
30
1.44423704527
70
192
0
VERTEX
8
1
10
9.07493997238
20
2.06077109161
30
-0.0826019485425
70
192
0
VERTEX
8
1
10
9.10577103669
20
0.103991096313
30
0.0644243278931
70
192
0
VERTEX
8
1
10
9.10584315297
20
0.0982438810126
30
-0.0687550842053
70
192
0
VERTEX
8
1
10
0
20
0
30
0
70
128
71
4
72
2
73
3
0
VERTEX
8
1
10
0
20
0
30
0
70
128
71
3
72
2
73
1
0
SEQEND
0
POLYLINE
8
0
39
0
100
AcDb3dPolyline
66
1
10
0
20
0
30
0
70
9
0
VERTEX
8
0
100
AcDb3dPolylineVertex
10
13.5098391873
20
0.0676949956997
30
-0.101448100155
0
VERTEX
8
0
100
AcDb3dPolylineVertex
10
9.10584315297
20
0.0982438810126
30
-0.0687550842053
0
VERTEX
8
0
100
AcDb3dPolylineVertex
10
9.10577103669
20
0.103991096313
30
0.0644243278931
0
VERTEX
8
0
100
AcDb3dPolylineVertex
10
13.5098118953
20
0.0743957573129
30
0.0538332974261
0
SEQEND
0
POLYLINE
8
1
70
64
66
1
10
0
20
0
30
0
71
4
72
2
0
VERTEX
8
1
10
9.10584315297
20
0.0982438810126
30
-0.0687550842053
70
192
0
VERTEX
8
1
10
9.10577103669
20
0.103991096313
30
0.0644243278931
70
192
0
VERTEX
8
1
10
13.5098391873
20
0.0676949956997
30
-0.101448100155
70
192
0
VERTEX
8
1
10
13.5098118953
20
0.0743957573129
30
0.0538332974261
70
192
0
VERTEX
8
1
10
0
20
0
30
0
70
128
71
3
72
1
73
4
0
VERTEX
8
1
10
0
20
0
30
0
70
128
71
4
72
1
73
2
0
SEQEND
0
POLYLINE
8
0
39
0
100
AcDb3dPolyline
66
1
10
0
20
0
30
0
70
9
0
VERTEX
8
0
100
AcDb3dPolylineVertex
10
13.3070783401
20
5.28875006637
30
-0.137385240775
0
VERTEX
8
0
100
AcDb3dPolylineVertex
10
13.5098391873
20
0.0676949956997
30
-0.101448100155
0
VERTEX
8
0
100
AcDb3dPolylineVertex
10
13.5098118953
20
0.0743957573129
30
0.0538332974261
0
VERTEX
8
0
100
AcDb3dPolylineVertex
10
13.3117902799
20
5.31470598422
30
3.67869444086
0
SEQEND
0
POLYLINE
8
1
70
64
66
1
10
0
20
0
30
0
71
4
72
2
0
VERTEX
8
1
10
13.5098391873
20
0.0676949956997
30
-0.101448100155
70
192
0
VERTEX
8
1
10
13.5098118953
20
0.0743957573129
30
0.0538332974261
70
192
0
VERTEX
8
1
10
13.3070783401
20
5.28875006637
30
-0.137385240775
70
192
0
VERTEX
8
1
10
13.3117902799
20
5.31470598422
30
3.67869444086
70
192
0
VERTEX
8
1
10
0
20
0
30
0
70
128
71
3
72
2
73
4
0
VERTEX
8
1
10
0
20
0
30
0
70
128
71
3
72
1
73
2
0
SEQEND
0
POLYLINE
8
0
39
0
100
AcDb3dPolyline
66
1
10
0
20
0
30
0
70
9
0
VERTEX
8
0
100
AcDb3dPolylineVertex
10
10.9717370101
20
5.77894006419
30
3.98998369735
0
VERTEX
8
0
100
AcDb3dPolylineVertex
10
11.1831899913
20
5.95018421445
30
3.98197670357
0
VERTEX
8
0
100
AcDb3dPolylineVertex
10
11.1789685237
20
6.33487083431
30
3.97162656919
0
VERTEX
8
0
100
AcDb3dPolylineVertex
10
13.035737677
20
6.33542289978
30
3.94202257714
0
VERTEX
8
0
100
AcDb3dPolylineVertex
10
13.0514920904
20
5.73736971246
30
3.95796687593
0
SEQEND
0
POLYLINE
8
1
70
64
66
1
10
0
20
0
30
0
71
5
72
3
0
VERTEX
8
1
10
10.9717370101
20
5.77894006419
30
3.98998369735
70
192
0
VERTEX
8
1
10
11.1831899913
20
5.95018421445
30
3.98197670357
70
192
0
VERTEX
8
1
10
11.1789685237
20
6.33487083431
30
3.97162656919
70
192
0
VERTEX
8
1
10
13.0514920904
20
5.73736971246
30
3.95796687593
70
192
0
VERTEX
8
1
10
13.035737677
20
6.33542289978
30
3.94202257714
70
192
0
VERTEX
8
1
10
0
20
0
30
0
70
128
71
5
72
4
73
2
0
VERTEX
8
1
10
0
20
0
30
0
70
128
71
5
72
2
73
3
0
VERTEX
8
1
10
0
20
0
30
0
70
128
71
1
72
2
73
4
0
SEQEND
0
POLYLINE
8
0
39
0
100
AcDb3dPolyline
66
1
10
0
20
0
30
0
70
9
0
VERTEX
8
0
100
AcDb3dPolylineVertex
10
11.1636222942
20
5.9058728528
30
-0.12579338773
0
VERTEX
8
0
100
AcDb3dPolylineVertex
10
11.159260195
20
6.30692275808
30
-0.1286376817
0
VERTEX
8
0
100
AcDb3dPolylineVertex
10
11.1789685237
20
6.33487083431
30
3.97162656919
0
VERTEX
8
0
100
AcDb3dPolylineVertex
10
11.1831899913
20
5.95018421445
30
3.98197670357
0
SEQEND
0
POLYLINE
8
1
70
64
66
1
10
0
20
0
30
0
71
4
72
2
0
VERTEX
8
1
10
11.1789685237
20
6.33487083431
30
3.97162656919
70
192
0
VERTEX
8
1
10
11.159260195
20
6.30692275808
30
-0.1286376817
70
192
0
VERTEX
8
1
10
11.1831899913
20
5.95018421445
30
3.98197670357
70
192
0
VERTEX
8
1
10
11.1636222942
20
5.9058728528
30
-0.12579338773
70
192
0
VERTEX
8
1
10
0
20
0
30
0
70
128
71
4
72
2
73
1
0
VERTEX
8
1
10
0
20
0
30
0
70
128
71
4
72
1
73
3
0
SEQEND
0
POLYLINE
8
0
39
0
100
AcDb3dPolyline
66
1
10
0
20
0
30
0
70
9
0
VERTEX
8
0
100
AcDb3dPolylineVertex
10
13.3558581696
20
4.13626546883
30
2.5545529591
0
VERTEX
8
0
100
AcDb3dPolylineVertex
10
13.3557270941
20
4.15197932994
30
2.87440566625
0
VERTEX
8
0
100
AcDb3dPolylineVertex
10
9.025320509
20
4.19453870015
30
2.8941306671
0
VERTEX
8
0
100
AcDb3dPolylineVertex
10
9.00881819607
20
4.17894897255
30
2.57354793372
0
SEQEND
0
POLYLINE
8
1
70
64
66
1
10
0
20
0
30
0
71
4
72
2
0
VERTEX
8
1
10
13.3558581696
20
4.13626546883
30
2.5545529591
70
192
0
VERTEX
8
1
10
13.3557270941
20
4.15197932994
30
2.87440566625
70
192
0
VERTEX
8
1
10
9.025320509
20
4.19453870015
30
2.8941306671
70
192
0
VERTEX
8
1
10
9.00881819607
20
4.17894897255
30
2.57354793372
70
192
0
VERTEX
8
1
10
0
20
0
30
0
70
128
71
3
72
4
73
1
0
VERTEX
8
1
10
0
20
0
30
0
70
128
71
3
72
1
73
2
0
SEQEND
0
POLYLINE
8
0
39
0
100
AcDb3dPolyline
66
1
10
0
20
0
30
0
70
9
0
VERTEX
8
0
100
AcDb3dPolylineVertex
10
13.3557270941
20
4.15197932994
30
2.87440566625
0
VERTEX
8
0
100
AcDb3dPolylineVertex
10
13.3558581696
20
4.13626546883
30
2.5545529591
0
VERTEX
8
0
100
AcDb3dPolylineVertex
10
13.348641242
20
4.32198967791
30
2.55033284743
0
VERTEX
8
0
100
AcDb3dPolylineVertex
10
13.3491458995
20
4.32614215472
30
2.99487894668
0
SEQEND
0
POLYLINE
8
1
70
64
66
1
10
0
20
0
30
0
71
4
72
2
0
VERTEX
8
1
10
13.3491458995
20
4.32614215472
30
2.99487894668
70
192
0
VERTEX
8
1
10
13.348641242
20
4.32198967791
30
2.55033284743
70
192
0
VERTEX
8
1
10
13.3557270941
20
4.15197932994
30
2.87440566625
70
192
0
VERTEX
8
1
10
13.3558581696
20
4.13626546883
30
2.5545529591
70
192
0
VERTEX
8
1
10
0
20
0
30
0
70
128
71
4
72
2
73
3
0
VERTEX
8
1
10
0
20
0
30
0
70
128
71
3
72
2
73
1
0
SEQEND
0
POLYLINE
8
0
39
0
100
AcDb3dPolyline
66
1
10
0
20
0
30
0
70
9
0
VERTEX
8
0
100
AcDb3dPolylineVertex
10
9.025320509
20
4.19453870015
30
2.8941306671
0
VERTEX
8
0
100
AcDb3dPolylineVertex
10
13.3557270941
20
4.15197932994
30
2.87440566625
0
VERTEX
8
0
100
AcDb3dPolylineVertex
10
13.3491458995
20
4.32614215472
30
2.99487894668
0
VERTEX
8
0
100
AcDb3dPolylineVertex
10
9.22450170662
20
4.35667737422
30
3.0067469436
0
SEQEND
0
POLYLINE
8
1
70
64
66
1
10
0
20
0
30
0
71
4
72
2
0
VERTEX
8
1
10
13.3557270941
20
4.15197932994
30
2.87440566625
70
192
0
VERTEX
8
1
10
13.3491458995
20
4.32614215472
30
2.99487894668
70
192
0
VERTEX
8
1
10
9.025320509
20
4.19453870015
30
2.8941306671
70
192
0
VERTEX
8
1
10
9.22450170662
20
4.35667737422
30
3.0067469436
70
192
0
VERTEX
8
1
10
0
20
0
30
0
70
128
71
4
72
3
73
1
0
VERTEX
8
1
10
0
20
0
30
0
70
128
71
2
72
4
73
1
0
SEQEND
0
POLYLINE
8
0
39
0
100
AcDb3dPolyline
66
1
10
0
20
0
30
0
70
9
0
VERTEX
8
0
100
AcDb3dPolylineVertex
10
9.00881819607
20
4.17894897255
30
2.57354793372
0
VERTEX
8
0
100
AcDb3dPolylineVertex
10
9.025320509
20
4.19453870015
30
2.8941306671
0
VERTEX
8
0
100
AcDb3dPolylineVertex
10
9.22450170662
20
4.35667737422
30
3.0067469436
0
VERTEX
8
0
100
AcDb3dPolylineVertex
10
9.22320360098
20
4.35258978856
30
2.56858637584
0
SEQEND
0
POLYLINE
8
1
70
64
66
1
10
0
20
0
30
0
71
4
72
2
0
VERTEX
8
1
10
9.00881819607
20
4.17894897255
30
2.57354793372
70
192
0
VERTEX
8
1
10
9.025320509
20
4.19453870015
30
2.8941306671
70
192
0
VERTEX
8
1
10
9.22320360098
20
4.35258978856
30
2.56858637584
70
192
0
VERTEX
8
1
10
9.22450170662
20
4.35667737422
30
3.0067469436
70
192
0
VERTEX
8
1
10
0
20
0
30
0
70
128
71
3
72
2
73
4
0
VERTEX
8
1
10
0
20
0
30
0
70
128
71
3
72
1
73
2
0
SEQEND
0
POLYLINE
8
0
39
0
100
AcDb3dPolyline
66
1
10
0
20
0
30
0
70
9
0
VERTEX
8
0
100
AcDb3dPolylineVertex
10
13.3558581696
20
4.13626546883
30
2.5545529591
0
VERTEX
8
0
100
AcDb3dPolylineVertex
10
9.00881819607
20
4.17894897255
30
2.57354793372
0
VERTEX
8
0
100
AcDb3dPolylineVertex
10
9.22320360098
20
4.35258978856
30
2.56858637584
0
VERTEX
8
0
100
AcDb3dPolylineVertex
10
13.348641242
20
4.32198967791
30
2.55033284743
0
SEQEND
0
POLYLINE
8
1
70
64
66
1
10
0
20
0
30
0
71
4
72
2
0
VERTEX
8
1
10
9.00881819607
20
4.17894897255
30
2.57354793372
70
192
0
VERTEX
8
1
10
9.22320360098
20
4.35258978856
30
2.56858637584
70
192
0
VERTEX
8
1
10
13.3558581696
20
4.13626546883
30
2.5545529591
70
192
0
VERTEX
8
1
10
13.348641242
20
4.32198967791
30
2.55033284743
70
192
0
VERTEX
8
1
10
0
20
0
30
0
70
128
71
4
72
3
73
2
0
VERTEX
8
1
10
0
20
0
30
0
70
128
71
1
72
2
73
3
0
SEQEND
0
POLYLINE
8
0
39
0
100
AcDb3dPolyline
66
1
10
0
20
0
30
0
70
9
0
VERTEX
8
0
100
AcDb3dPolylineVertex
10
9.22320360098
20
4.35258978856
30
2.56858637584
0
VERTEX
8
0
100
AcDb3dPolylineVertex
10
9.22450170662
20
4.35667737422
30
3.0067469436
0
VERTEX
8
0
100
AcDb3dPolylineVertex
10
13.3491458995
20
4.32614215472
30
2.99487894668
0
VERTEX
8
0
100
AcDb3dPolylineVertex
10
13.348641242
20
4.32198967791
30
2.55033284743
0
SEQEND
0
POLYLINE
8
1
70
64
66
1
10
0
20
0
30
0
71
4
72
2
0
VERTEX
8
1
10
9.22320360098
20
4.35258978856
30
2.56858637584
70
192
0
VERTEX
8
1
10
9.22450170662
20
4.35667737422
30
3.0067469436
70
192
0
VERTEX
8
1
10
13.348641242
20
4.32198967791
30
2.55033284743
70
192
0
VERTEX
8
1
10
13.3491458995
20
4.32614215472
30
2.99487894668
70
192
0
VERTEX
8
1
10
0
20
0
30
0
70
128
71
3
72
1
73
4
0
VERTEX
8
1
10
0
20
0
30
0
70
128
71
4
72
1
73
2
0
SEQEND
0
POLYLINE
8
0
39
0
100
AcDb3dPolyline
66
1
10
0
20
0
30
0
70
9
0
VERTEX
8
0
100
AcDb3dPolylineVertex
10
3.15760673939
20
4.28365718491
30
-0.0543257123905
0
VERTEX
8
0
100
AcDb3dPolylineVertex
10
3.1412460495
20
6.07193050772
30
-0.067031292605
0
VERTEX
8
0
100
AcDb3dPolylineVertex
10
-1.35190991952
20
5.9993127546
30
-0.0329319101318
0
VERTEX
8
0
100
AcDb3dPolylineVertex
10
-1.3164789656
20
2.46188526844
30
-0.0078215642637
0
VERTEX
8
0
100
AcDb3dPolylineVertex
10
-0.871246671641
20
2.47046790515
30
-0.0112104361932
0
VERTEX
8
0
100
AcDb3dPolylineVertex
10
-0.869618347275
20
1.04683813812
30
-0.00101043808297
0
VERTEX
8
0
100
AcDb3dPolylineVertex
10
-0.0727702904931
20
1.05204300845
30
-0.00700289294252
0
SEQEND
0
POLYLINE
8
1
70
64
66
1
10
0
20
0
30
0
71
7
72
5
0
VERTEX
8
1
10
3.1412460495
20
6.07193050772
30
-0.067031292605
70
192
0
VERTEX
8
1
10
3.15760673939
20
4.28365718491
30
-0.0543257123905
70
192
0
VERTEX
8
1
10
-1.35190991952
20
5.9993127546
30
-0.0329319101318
70
192
0
VERTEX
8
1
10
-0.871246671641
20
2.47046790515
30
-0.0112104361932
70
192
0
VERTEX
8
1
10
-0.0727702904931
20
1.05204300845
30
-0.00700289294252
70
192
0
VERTEX
8
1
10
-1.3164789656
20
2.46188526844
30
-0.0078215642637
70
192
0
VERTEX
8
1
10
-0.869618347275
20
1.04683813812
30
-0.00101043808297
70
192
0
VERTEX
8
1
10
0
20
0
30
0
70
128
71
7
72
5
73
4
0
VERTEX
8
1
10
0
20
0
30
0
70
128
71
5
72
2
73
4
0
VERTEX
8
1
10
0
20
0
30
0
70
128
71
4
72
2
73
3
0
VERTEX
8
1
10
0
20
0
30
0
70
128
71
6
72
4
73
3
0
VERTEX
8
1
10
0
20
0
30
0
70
128
71
2
72
1
73
3
0
SEQEND
0
POLYLINE
8
0
39
0
100
AcDb3dPolyline
66
1
10
0
20
0
30
0
70
9
0
VERTEX
8
0
100
AcDb3dPolylineVertex
10
-1.3164789656
20
2.46188526844
30
-0.0078215642637
0
VERTEX
8
0
100
AcDb3dPolylineVertex
10
-1.35190991952
20
5.9993127546
30
-0.0329319101318
0
VERTEX
8
0
100
AcDb3dPolylineVertex
10
-1.32259496508
20
6.02916071933
30
3.89522546527
0
VERTEX
8
0
100
AcDb3dPolylineVertex
10
-1.31859445021
20
5.62338315586
30
3.88965079003
0
VERTEX
8
0
100
AcDb3dPolylineVertex
10
-1.30351629365
20
2.4678550913
30
1.7196029331
0
SEQEND
0
POLYLINE
8
0
39
0
100
AcDb3dPolyline
66
1
10
0
20
0
30
0
70
9
0
VERTEX
8
0
100
AcDb3dPolylineVertex
10
-1.31689233749
20
4.48998742417
30
2.6175961232
0
VERTEX
8
0
100
AcDb3dPolylineVertex
10
-1.32195483688
20
5.55330040408
30
3.35126516301
0
VERTEX
8
0
100
AcDb3dPolylineVertex
10
-1.34113136313
20
5.53183689407
30
0.779068244537
0
VERTEX
8
0
100
AcDb3dPolylineVertex
10
-1.33052986963
20
4.47387860381
30
0.787245674799
0
SEQEND
0
POLYLINE
8
0
39
0
100
AcDb3dPolyline
66
1
10
0
20
0
30
0
70
9
0
VERTEX
8
0
100
AcDb3dPolylineVertex
10
-1.31542594063
20
4.19206338307
30
2.41838599975
0
VERTEX
8
0
100
AcDb3dPolylineVertex
10
-1.32755303659
20
4.18034422267
30
0.794212919461
0
VERTEX
8
0
100
AcDb3dPolylineVertex
10
-1.31709466678
20
3.13713293434
30
0.802879920412
0
VERTEX
8
0
100
AcDb3dPolylineVertex
10
-1.31049059895
20
3.14388541124
30
1.68784606129
0
SEQEND
0
POLYLINE
8
1
70
64
66
1
10
0
20
0
30
0
71
13
72
15
0
VERTEX
8
1
10
-1.32259496508
20
6.02916071933
30
3.89522546527
70
192
0
VERTEX
8
1
10
-1.35190991952
20
5.9993127546
30
-0.0329319101318
70
192
0
VERTEX
8
1
10
-1.31859445021
20
5.62338315586
30
3.88965079003
70
192
0
VERTEX
8
1
10
-1.32195483688
20
5.55330040408
30
3.35126516301
70
192
0
VERTEX
8
1
10
-1.34113136313
20
5.53183689407
30
0.779068244537
70
192
0
VERTEX
8
1
10
-1.31689233749
20
4.48998742417
30
2.6175961232
70
192
0
VERTEX
8
1
10
-1.33052986963
20
4.47387860381
30
0.787245674799
70
192
0
VERTEX
8
1
10
-1.31542594063
20
4.19206338307
30
2.41838599975
70
192
0
VERTEX
8
1
10
-1.32755303659
20
4.18034422267
30
0.794212919461
70
192
0
VERTEX
8
1
10
-1.31049059895
20
3.14388541124
30
1.68784606129
70
192
0
VERTEX
8
1
10
-1.31709466678
20
3.13713293434
30
0.802879920412
70
192
0
VERTEX
8
1
10
-1.30351629365
20
2.4678550913
30
1.7196029331
70
192
0
VERTEX
8
1
10
-1.3164789656
20
2.46188526844
30
-0.0078215642637
70
192
0
VERTEX
8
1
10
0
20
0
30
0
70
128
71
2
72
9
73
13
0
VERTEX
8
1
10
0
20
0
30
0
70
128
71
9
72
2
73
7
0
VERTEX
8
1
10
0
20
0
30
0
70
128
71
9
72
7
73
8
0
VERTEX
8
1
10
0
20
0
30
0
70
128
71
8
72
7
73
6
0
VERTEX
8
1
10
0
20
0
30
0
70
128
71
6
72
3
73
8
0
VERTEX
8
1
10
0
20
0
30
0
70
128
71
3
72
6
73
4
0
VERTEX
8
1
10
0
20
0
30
0
70
128
71
3
72
4
73
1
0
VERTEX
8
1
10
0
20
0
30
0
70
128
71
4
72
5
73
1
0
VERTEX
8
1
10
0
20
0
30
0
70
128
71
1
72
5
73
2
0
VERTEX
8
1
10
0
20
0
30
0
70
128
71
7
72
2
73
5
0
VERTEX
8
1
10
0
20
0
30
0
70
128
71
3
72
12
73
8
0
VERTEX
8
1
10
0
20
0
30
0
70
128
71
12
72
10
73
8
0
VERTEX
8
1
10
0
20
0
30
0
70
128
71
12
72
11
73
10
0
VERTEX
8
1
10
0
20
0
30
0
70
128
71
12
72
13
73
11
0
VERTEX
8
1
10
0
20
0
30
0
70
128
71
13
72
9
73
11
0
SEQEND
0
POLYLINE
8
0
39
0
100
AcDb3dPolyline
66
1
10
0
20
0
30
0
70
9
0
VERTEX
8
0
100
AcDb3dPolylineVertex
10
3.16402958876
20
6.10229371556
30
3.94417743254
0
VERTEX
8
0
100
AcDb3dPolylineVertex
10
3.1678158872
20
5.68293301529
30
3.93841252611
0
VERTEX
8
0
100
AcDb3dPolylineVertex
10
-1.31859445021
20
5.62338315586
30
3.88965079003
0
VERTEX
8
0
100
AcDb3dPolylineVertex
10
-1.32259496508
20
6.02916071933
30
3.89522546527
0
SEQEND
0
POLYLINE
8
1
70
64
66
1
10
0
20
0
30
0
71
4
72
2
0
VERTEX
8
1
10
-1.31859445021
20
5.62338315586
30
3.88965079003
70
192
0
VERTEX
8
1
10
-1.32259496508
20
6.02916071933
30
3.89522546527
70
192
0
VERTEX
8
1
10
3.1678158872
20
5.68293301529
30
3.93841252611
70
192
0
VERTEX
8
1
10
3.16402958876
20
6.10229371556
30
3.94417743254
70
192
0
VERTEX
8
1
10
0
20
0
30
0
70
128
71
4
72
3
73
2
0
VERTEX
8
1
10
0
20
0
30
0
70
128
71
3
72
1
73
2
0
SEQEND
0
POLYLINE
8
0
39
0
100
AcDb3dPolyline
66
1
10
0
20
0
30
0
70
9
0
VERTEX
8
0
100
AcDb3dPolylineVertex
10
3.17441249038
20
4.39788087299
30
3.04992204289
0
VERTEX
8
0
100
AcDb3dPolylineVertex
10
3.17189829715
20
4.4015588078
30
2.61841030776
0
VERTEX
8
0
100
AcDb3dPolylineVertex
10
-1.31635676365
20
4.45061045168
30
2.63659573449
0
VERTEX
8
0
100
AcDb3dPolylineVertex
10
-1.31300547349
20
4.44685489433
30
3.07619344703
0
SEQEND
0
POLYLINE
8
1
70
64
66
1
10
0
20
0
30
0
71
4
72
2
0
VERTEX
8
1
10
-1.31635676365
20
4.45061045168
30
2.63659573449
70
192
0
VERTEX
8
1
10
-1.31300547349
20
4.44685489433
30
3.07619344703
70
192
0
VERTEX
8
1
10
3.17189829715
20
4.4015588078
30
2.61841030776
70
192
0
VERTEX
8
1
10
3.17441249038
20
4.39788087299
30
3.04992204289
70
192
0
VERTEX
8
1
10
0
20
0
30
0
70
128
71
3
72
1
73
4
0
VERTEX
8
1
10
0
20
0
30
0
70
128
71
4
72
1
73
2
0
SEQEND
0
POLYLINE
8
0
39
0
100
AcDb3dPolyline
66
1
10
0
20
0
30
0
70
9
0
VERTEX
8
0
100
AcDb3dPolylineVertex
10
-0.871246671641
20
2.47046790515
30
-0.0112104361932
0
VERTEX
8
0
100
AcDb3dPolylineVertex
10
-1.3164789656
20
2.46188526844
30
-0.0078215642637
0
VERTEX
8
0
100
AcDb3dPolylineVertex
10
-1.30351629365
20
2.4678550913
30
1.7196029331
0
VERTEX
8
0
100
AcDb3dPolylineVertex
10
-0.865287797217
20
2.47633713194
30
1.72666455287
0
SEQEND
0
POLYLINE
8
1
70
64
66
1
10
0
20
0
30
0
71
4
72
2
0
VERTEX
8
1
10
-1.3164789656
20
2.46188526844
30
-0.0078215642637
70
192
0
VERTEX
8
1
10
-1.30351629365
20
2.4678550913
30
1.7196029331
70
192
0
VERTEX
8
1
10
-0.871246671641
20
2.47046790515
30
-0.0112104361932
70
192
0
VERTEX
8
1
10
-0.865287797217
20
2.47633713194
30
1.72666455287
70
192
0
VERTEX
8
1
10
0
20
0
30
0
70
128
71
4
72
3
73
2
0
VERTEX
8
1
10
0
20
0
30
0
70
128
71
3
72
1
73
2
0
SEQEND
0
POLYLINE
8
0
39
0
100
AcDb3dPolyline
66
1
10
0
20
0
30
0
70
9
0
VERTEX
8
0
100
AcDb3dPolylineVertex
10
-0.869618347275
20
1.04683813812
30
-0.00101043808297
0
VERTEX
8
0
100
AcDb3dPolylineVertex
10
-0.871246671641
20
2.47046790515
30
-0.0112104361932
0
VERTEX
8
0
100
AcDb3dPolylineVertex
10
-0.865287797217
20
2.47633713194
30
1.72666455287
0
VERTEX
8
0
100
AcDb3dPolylineVertex
10
-0.86709600282
20
1.04817559459
30
0.734253777385
0
SEQEND
0
POLYLINE
8
1
70
64
66
1
10
0
20
0
30
0
71
4
72
2
0
VERTEX
8
1
10
-0.865287797217
20
2.47633713194
30
1.72666455287
70
192
0
VERTEX
8
1
10
-0.871246671641
20
2.47046790515
30
-0.0112104361932
70
192
0
VERTEX
8
1
10
-0.86709600282
20
1.04817559459
30
0.734253777385
70
192
0
VERTEX
8
1
10
-0.869618347275
20
1.04683813812
30
-0.00101043808297
70
192
0
VERTEX
8
1
10
0
20
0
30
0
70
128
71
4
72
2
73
3
0
VERTEX
8
1
10
0
20
0
30
0
70
128
71
3
72
2
73
1
0
SEQEND
0
POLYLINE
8
0
39
0
100
AcDb3dPolyline
66
1
10
0
20
0
30
0
70
9
0
VERTEX
8
0
100
AcDb3dPolylineVertex
10
-0.0727702904931
20
1.05204300845
30
-0.00700289294252
0
VERTEX
8
0
100
AcDb3dPolylineVertex
10
-0.869618347275
20
1.04683813812
30
-0.00101043808297
0
VERTEX
8
0
100
AcDb3dPolylineVertex
10
-0.86709600282
20
1.04817559459
30
0.734253777385
0
VERTEX
8
0
100
AcDb3dPolylineVertex
10
-0.0707318593566
20
1.05339839384
30
0.740004793008
0
SEQEND
0
POLYLINE
8
1
70
64
66
1
10
0
20
0
30
0
71
4
72
2
0
VERTEX
8
1
10
-0.869618347275
20
1.04683813812
30
-0.00101043808297
70
192
0
VERTEX
8
1
10
-0.86709600282
20
1.04817559459
30
0.734253777385
70
192
0
VERTEX
8
1
10
-0.0727702904931
20
1.05204300845
30
-0.00700289294252
70
192
0
VERTEX
8
1
10
-0.0707318593566
20
1.05339839384
30
0.740004793008
70
192
0
VERTEX
8
1
10
0
20
0
30
0
70
128
71
4
72
3
73
2
0
VERTEX
8
1
10
0
20
0
30
0
70
128
71
3
72
1
73
2
0
SEQEND
0
POLYLINE
8
0
39
0
100
AcDb3dPolyline
66
1
10
0
20
0
30
0
70
9
0
VERTEX
8
0
100
AcDb3dPolylineVertex
10
-0.0707318593566
20
1.05339839384
30
0.740004793008
0
VERTEX
8
0
100
AcDb3dPolylineVertex
10
-0.86709600282
20
1.04817559459
30
0.734253777385
0
VERTEX
8
0
100
AcDb3dPolylineVertex
10
-0.865287797217
20
2.47633713194
30
1.72666455287
0
VERTEX
8
0
100
AcDb3dPolylineVertex
10
-1.30351629365
20
2.4678550913
30
1.7196029331
0
VERTEX
8
0
100
AcDb3dPolylineVertex
10
-1.31859445021
20
5.62338315586
30
3.88965079003
0
VERTEX
8
0
100
AcDb3dPolylineVertex
10
3.1678158872
20
5.68293301529
30
3.93841252611
0
VERTEX
8
0
100
AcDb3dPolylineVertex
10
3.17490685104
20
4.30155331281
30
2.98332074097
0
SEQEND
0
POLYLINE
8
1
70
64
66
1
10
0
20
0
30
0
71
7
72
5
0
VERTEX
8
1
10
-1.31859445021
20
5.62338315586
30
3.88965079003
70
192
0
VERTEX
8
1
10
3.1678158872
20
5.68293301529
30
3.93841252611
70
192
0
VERTEX
8
1
10
-1.30351629365
20
2.4678550913
30
1.7196029331
70
192
0
VERTEX
8
1
10
-0.865287797217
20
2.47633713194
30
1.72666455287
70
192
0
VERTEX
8
1
10
3.17490685104
20
4.30155331281
30
2.98332074097
70
192
0
VERTEX
8
1
10
-0.86709600282
20
1.04817559459
30
0.734253777385
70
192
0
VERTEX
8
1
10
-0.0707318593566
20
1.05339839384
30
0.740004793008
70
192
0
VERTEX
8
1
10
0
20
0
30
0
70
128
71
7
72
6
73
4
0
VERTEX
8
1
10
0
20
0
30
0
70
128
71
7
72
4
73
5
0
VERTEX
8
1
10
0
20
0
30
0
70
128
71
5
72
4
73
1
0
VERTEX
8
1
10
0
20
0
30
0
70
128
71
2
72
5
73
1
0
VERTEX
8
1
10
0
20
0
30
0
70
128
71
4
72
3
73
1
0
SEQEND
0
POLYLINE
8
0
39
0
100
AcDb3dPolyline
66
1
10
0
20
0
30
0
70
9
0
VERTEX
8
0
100
AcDb3dPolylineVertex
10
3.16140993905
20
5.13136939011
30
1.95025246704
0
VERTEX
8
0
100
AcDb3dPolylineVertex
10
3.14996064325
20
5.12941117394
30
-0.0444142450014
0
VERTEX
8
0
100
AcDb3dPolylineVertex
10
3.15760673939
20
4.28365718491
30
-0.0543257123905
0
VERTEX
8
0
100
AcDb3dPolylineVertex
10
3.17490685104
20
4.30155331281
30
2.98332074097
0
VERTEX
8
0
100
AcDb3dPolylineVertex
10
3.1678158872
20
5.68293301529
30
3.93841252611
0
VERTEX
8
0
100
AcDb3dPolylineVertex
10
3.16402958876
20
6.10229371556
30
3.94417743254
0
VERTEX
8
0
100
AcDb3dPolylineVertex
10
3.1412460495
20
6.07193050772
30
-0.067031292605
0
VERTEX
8
0
100
AcDb3dPolylineVertex
10
3.14243151453
20
5.94235474046
30
-0.0661106931358
0
VERTEX
8
0
100
AcDb3dPolylineVertex
10
3.15399748748
20
5.94109648504
30
1.9437474602
0
SEQEND
0
POLYLINE
8
1
70
64
66
1
10
0
20
0
30
0
71
9
72
7
0
VERTEX
8
1
10
3.15760673939
20
4.28365718491
30
-0.0543257123905
70
192
0
VERTEX
8
1
10
3.17490685104
20
4.30155331281
30
2.98332074097
70
192
0
VERTEX
8
1
10
3.14996064325
20
5.12941117394
30
-0.0444142450014
70
192
0
VERTEX
8
1
10
3.16140993905
20
5.13136939011
30
1.95025246704
70
192
0
VERTEX
8
1
10
3.1678158872
20
5.68293301529
30
3.93841252611
70
192
0
VERTEX
8
1
10
3.14243151453
20
5.94235474046
30
-0.0661106931358
70
192
0
VERTEX
8
1
10
3.15399748748
20
5.94109648504
30
1.9437474602
70
192
0
VERTEX
8
1
10
3.1412460495
20
6.07193050772
30
-0.067031292605
70
192
0
VERTEX
8
1
10
3.16402958876
20
6.10229371556
30
3.94417743254
70
192
0
VERTEX
8
1
10
0
20
0
30
0
70
128
71
8
72
7
73
9
0
VERTEX
8
1
10
0
20
0
30
0
70
128
71
8
72
6
73
7
0
VERTEX
8
1
10
0
20
0
30
0
70
128
71
7
72
5
73
9
0
VERTEX
8
1
10
0
20
0
30
0
70
128
71
7
72
4
73
5
0
VERTEX
8
1
10
0
20
0
30
0
70
128
71
4
72
2
73
5
0
VERTEX
8
1
10
0
20
0
30
0
70
128
71
2
72
4
73
1
0
VERTEX
8
1
10
0
20
0
30
0
70
128
71
4
72
3
73
1
0
SEQEND
0
POLYLINE
8
0
39
0
100
AcDb3dPolyline
66
1
10
0
20
0
30
0
70
9
0
VERTEX
8
0
100
AcDb3dPolylineVertex
10
-1.35190991952
20
5.9993127546
30
-0.0329319101318
0
VERTEX
8
0
100
AcDb3dPolylineVertex
10
3.1412460495
20
6.07193050772
30
-0.067031292605
0
VERTEX
8
0
100
AcDb3dPolylineVertex
10
3.16402958876
20
6.10229371556
30
3.94417743254
0
VERTEX
8
0
100
AcDb3dPolylineVertex
10
-1.32259496508
20
6.02916071933
30
3.89522546527
0
SEQEND
0
POLYLINE
8
1
70
64
66
1
10
0
20
0
30
0
71
4
72
2
0
VERTEX
8
1
10
3.16402958876
20
6.10229371556
30
3.94417743254
70
192
0
VERTEX
8
1
10
3.1412460495
20
6.07193050772
30
-0.067031292605
70
192
0
VERTEX
8
1
10
-1.32259496508
20
6.02916071933
30
3.89522546527
70
192
0
VERTEX
8
1
10
-1.35190991952
20
5.9993127546
30
-0.0329319101318
70
192
0
VERTEX
8
1
10
0
20
0
30
0
70
128
71
4
72
2
73
3
0
VERTEX
8
1
10
0
20
0
30
0
70
128
71
2
72
1
73
3
0
SEQEND
0
POLYLINE
8
0
39
0
100
AcDb3dPolyline
66
1
10
0
20
0
30
0
70
9
0
VERTEX
8
0
100
AcDb3dPolylineVertex
10
3.15760673939
20
4.28365718491
30
-0.0543257123905
0
VERTEX
8
0
100
AcDb3dPolylineVertex
10
-0.0727702904931
20
1.05204300845
30
-0.00700289294252
0
VERTEX
8
0
100
AcDb3dPolylineVertex
10
-0.0707318593566
20
1.05339839384
30
0.740004793008
0
VERTEX
8
0
100
AcDb3dPolylineVertex
10
3.17490685104
20
4.30155331281
30
2.98332074097
0
SEQEND
0
POLYLINE
8
1
70
64
66
1
10
0
20
0
30
0
71
4
72
2
0
VERTEX
8
1
10
-0.0727702904931
20
1.05204300845
30
-0.00700289294252
70
192
0
VERTEX
8
1
10
-0.0707318593566
20
1.05339839384
30
0.740004793008
70
192
0
VERTEX
8
1
10
3.15760673939
20
4.28365718491
30
-0.0543257123905
70
192
0
VERTEX
8
1
10
3.17490685104
20
4.30155331281
30
2.98332074097
70
192
0
VERTEX
8
1
10
0
20
0
30
0
70
128
71
4
72
3
73
2
0
VERTEX
8
1
10
0
20
0
30
0
70
128
71
3
72
1
73
2
0
SEQEND
0
POLYLINE
8
0
39
0
100
AcDb3dPolyline
66
1
10
0
20
0
30
0
70
9
0
VERTEX
8
0
100
AcDb3dPolylineVertex
10
3.17189829715
20
4.4015588078
30
2.61841030776
0
VERTEX
8
0
100
AcDb3dPolylineVertex
10
3.17441249038
20
4.39788087299
30
3.04992204289
0
VERTEX
8
0
100
AcDb3dPolylineVertex
10
3.17528845759
20
4.22722530382
30
2.93192998129
0
VERTEX
8
0
100
AcDb3dPolylineVertex
10
3.1734854895
20
4.22691468943
30
2.61779948661
0
SEQEND
0
POLYLINE
8
1
70
64
66
1
10
0
20
0
30
0
71
4
72
2
0
VERTEX
8
1
10
3.17441249038
20
4.39788087299
30
3.04992204289
70
192
0
VERTEX
8
1
10
3.17189829715
20
4.4015588078
30
2.61841030776
70
192
0
VERTEX
8
1
10
3.17528845759
20
4.22722530382
30
2.93192998129
70
192
0
VERTEX
8
1
10
3.1734854895
20
4.22691468943
30
2.61779948661
70
192
0
VERTEX
8
1
10
0
20
0
30
0
70
128
71
4
72
2
73
3
0
VERTEX
8
1
10
0
20
0
30
0
70
128
71
3
72
2
73
1
0
SEQEND
0
POLYLINE
8
0
39
0
100
AcDb3dPolyline
66
1
10
0
20
0
30
0
70
9
0
VERTEX
8
0
100
AcDb3dPolylineVertex
10
-1.31635676365
20
4.45061045168
30
2.63659573449
0
VERTEX
8
0
100
AcDb3dPolylineVertex
10
3.17189829715
20
4.4015588078
30
2.61841030776
0
VERTEX
8
0
100
AcDb3dPolylineVertex
10
3.1734854895
20
4.22691468943
30
2.61779948661
0
VERTEX
8
0
100
AcDb3dPolylineVertex
10
-1.31457686682
20
4.27147376636
30
2.63596860349
0
SEQEND
0
POLYLINE
8
1
70
64
66
1
10
0
20
0
30
0
71
4
72
2
0
VERTEX
8
1
10
-1.31457686682
20
4.27147376636
30
2.63596860349
70
192
0
VERTEX
8
1
10
-1.31635676365
20
4.45061045168
30
2.63659573449
70
192
0
VERTEX
8
1
10
3.1734854895
20
4.22691468943
30
2.61779948661
70
192
0
VERTEX
8
1
10
3.17189829715
20
4.4015588078
30
2.61841030776
70
192
0
VERTEX
8
1
10
0
20
0
30
0
70
128
71
4
72
3
73
1
0
VERTEX
8
1
10
0
20
0
30
0
70
128
71
4
72
1
73
2
0
SEQEND
0
POLYLINE
8
0
39
0
100
AcDb3dPolyline
66
1
10
0
20
0
30
0
70
9
0
VERTEX
8
0
100
AcDb3dPolylineVertex
10
-1.31300547349
20
4.44685489433
30
3.07619344703
0
VERTEX
8
0
100
AcDb3dPolylineVertex
10
-1.31635676365
20
4.45061045168
30
2.63659573449
0
VERTEX
8
0
100
AcDb3dPolylineVertex
10
-1.31457686682
20
4.27147376636
30
2.63596860349
0
VERTEX
8
0
100
AcDb3dPolylineVertex
10
-1.31217378208
20
4.27178357613
30
2.95514825801
0
SEQEND
0
POLYLINE
8
1
70
64
66
1
10
0
20
0
30
0
71
4
72
2
0
VERTEX
8
1
10
-1.31457686682
20
4.27147376636
30
2.63596860349
70
192
0
VERTEX
8
1
10
-1.31217378208
20
4.27178357613
30
2.95514825801
70
192
0
VERTEX
8
1
10
-1.31635676365
20
4.45061045168
30
2.63659573449
70
192
0
VERTEX
8
1
10
-1.31300547349
20
4.44685489433
30
3.07619344703
70
192
0
VERTEX
8
1
10
0
20
0
30
0
70
128
71
3
72
2
73
4
0
VERTEX
8
1
10
0
20
0
30
0
70
128
71
3
72
1
73
2
0
SEQEND
0
POLYLINE
8
0
39
0
100
AcDb3dPolyline
66
1
10
0
20
0
30
0
70
9
0
VERTEX
8
0
100
AcDb3dPolylineVertex
10
3.17441249038
20
4.39788087299
30
3.04992204289
0
VERTEX
8
0
100
AcDb3dPolylineVertex
10
-1.31300547349
20
4.44685489433
30
3.07619344703
0
VERTEX
8
0
100
AcDb3dPolylineVertex
10
-1.31217378208
20
4.27178357613
30
2.95514825801
0
VERTEX
8
0
100
AcDb3dPolylineVertex
10
3.17528845759
20
4.22722530382
30
2.93192998129
0
SEQEND
0
POLYLINE
8
1
70
64
66
1
10
0
20
0
30
0
71
4
72
2
0
VERTEX
8
1
10
3.17528845759
20
4.22722530382
30
2.93192998129
70
192
0
VERTEX
8
1
10
3.17441249038
20
4.39788087299
30
3.04992204289
70
192
0
VERTEX
8
1
10
-1.31217378208
20
4.27178357613
30
2.95514825801
70
192
0
VERTEX
8
1
10
-1.31300547349
20
4.44685489433
30
3.07619344703
70
192
0
VERTEX
8
1
10
0
20
0
30
0
70
128
71
4
72
3
73
1
0
VERTEX
8
1
10
0
20
0
30
0
70
128
71
4
72
1
73
2
0
SEQEND
0
POLYLINE
8
0
39
0
100
AcDb3dPolyline
66
1
10
0
20
0
30
0
70
9
0
VERTEX
8
0
100
AcDb3dPolylineVertex
10
-1.31217378208
20
4.27178357613
30
2.95514825801
0
VERTEX
8
0
100
AcDb3dPolylineVertex
10
-1.31457686682
20
4.27147376636
30
2.63596860349
0
VERTEX
8
0
100
AcDb3dPolylineVertex
10
3.1734854895
20
4.22691468943
30
2.61779948661
0
VERTEX
8
0
100
AcDb3dPolylineVertex
10
3.17528845759
20
4.22722530382
30
2.93192998129
0
SEQEND
0
POLYLINE
8
1
70
64
66
1
10
0
20
0
30
0
71
4
72
2
0
VERTEX
8
1
10
3.17528845759
20
4.22722530382
30
2.93192998129
70
192
0
VERTEX
8
1
10
3.1734854895
20
4.22691468943
30
2.61779948661
70
192
0
VERTEX
8
1
10
-1.31217378208
20
4.27178357613
30
2.95514825801
70
192
0
VERTEX
8
1
10
-1.31457686682
20
4.27147376636
30
2.63596860349
70
192
0
VERTEX
8
1
10
0
20
0
30
0
70
128
71
4
72
2
73
3
0
VERTEX
8
1
10
0
20
0
30
0
70
128
71
2
72
1
73
3
0
SEQEND
0
POLYLINE
8
0
39
0
100
AcDb3dPolyline
66
1
10
0
20
0
30
0
70
9
0
VERTEX
8
0
100
AcDb3dPolylineVertex
10
10.8415564011
20
6.35782256314
30
2.71617939687
0
VERTEX
8
0
100
AcDb3dPolylineVertex
10
10.8330075867
20
7.35111987134
30
2.70137771942
0
VERTEX
8
0
100
AcDb3dPolylineVertex
10
11.0419996024
20
7.36548909224
30
2.65813576523
0
VERTEX
8
0
100
AcDb3dPolylineVertex
10
11.0627748138
20
6.3539436132
30
2.67072600563
0
SEQEND
0
POLYLINE
8
1
70
64
66
1
10
0
20
0
30
0
71
4
72
2
0
VERTEX
8
1
10
10.8415564011
20
6.35782256314
30
2.71617939687
70
192
0
VERTEX
8
1
10
11.0627748138
20
6.3539436132
30
2.67072600563
70
192
0
VERTEX
8
1
10
10.8330075867
20
7.35111987134
30
2.70137771942
70
192
0
VERTEX
8
1
10
11.0419996024
20
7.36548909224
30
2.65813576523
70
192
0
VERTEX
8
1
10
0
20
0
30
0
70
128
71
4
72
2
73
3
0
VERTEX
8
1
10
0
20
0
30
0
70
128
71
3
72
2
73
1
0
SEQEND
0
POLYLINE
8
0
39
0
100
AcDb3dPolyline
66
1
10
0
20
0
30
0
70
9
0
VERTEX
8
0
100
AcDb3dPolylineVertex
10
3.13742973808
20
6.19321779127
30
-0.067872832805
0
VERTEX
8
0
100
AcDb3dPolylineVertex
10
-1.10963882597
20
6.12777722943
30
-0.0356639303323
0
VERTEX
8
0
100
AcDb3dPolylineVertex
10
-1.0815736047
20
6.15180891213
30
3.91248036621
0
VERTEX
8
0
100
AcDb3dPolylineVertex
10
3.1639237437
20
6.21686152286
30
3.8194479785
0
SEQEND
0
POLYLINE
8
1
70
64
66
1
10
0
20
0
30
0
71
4
72
2
0
VERTEX
8
1
10
-1.10963882597
20
6.12777722943
30
-0.0356639303323
70
192
0
VERTEX
8
1
10
-1.0815736047
20
6.15180891213
30
3.91248036621
70
192
0
VERTEX
8
1
10
3.13742973808
20
6.19321779127
30
-0.067872832805
70
192
0
VERTEX
8
1
10
3.1639237437
20
6.21686152286
30
3.8194479785
70
192
0
VERTEX
8
1
10
0
20
0
30
0
70
128
71
3
72
1
73
4
0
VERTEX
8
1
10
0
20
0
30
0
70
128
71
4
72
1
73
2
0
SEQEND
0
POLYLINE
8
0
39
0
100
AcDb3dPolyline
66
1
10
0
20
0
30
0
70
9
0
VERTEX
8
0
100
AcDb3dPolylineVertex
10
-1.10901080298
20
6.22032164475
30
-0.0363325360884
0
VERTEX
8
0
100
AcDb3dPolylineVertex
10
-1.35385870462
20
6.211110145
30
-0.034436631989
0
VERTEX
8
0
100
AcDb3dPolylineVertex
10
-1.32817496988
20
6.23864714415
30
3.91544063704
0
VERTEX
8
0
100
AcDb3dPolylineVertex
10
-1.08639527839
20
6.24371253438
30
3.91010580031
0
SEQEND
0
POLYLINE
8
1
70
64
66
1
10
0
20
0
30
0
71
4
72
2
0
VERTEX
8
1
10
-1.35385870462
20
6.211110145
30
-0.034436631989
70
192
0
VERTEX
8
1
10
-1.32817496988
20
6.23864714415
30
3.91544063704
70
192
0
VERTEX
8
1
10
-1.10901080298
20
6.22032164475
30
-0.0363325360884
70
192
0
VERTEX
8
1
10
-1.08639527839
20
6.24371253438
30
3.91010580031
70
192
0
VERTEX
8
1
10
0
20
0
30
0
70
128
71
3
72
1
73
4
0
VERTEX
8
1
10
0
20
0
30
0
70
128
71
4
72
1
73
2
0
SEQEND
0
POLYLINE
8
0
39
0
100
AcDb3dPolyline
66
1
10
0
20
0
30
0
70
9
0
VERTEX
8
0
100
AcDb3dPolylineVertex
10
-1.39006102833
20
9.41217278527
30
-0.057128322121
0
VERTEX
8
0
100
AcDb3dPolylineVertex
10
-1.35385870462
20
6.211110145
30
-0.034436631989
0
VERTEX
8
0
100
AcDb3dPolylineVertex
10
-1.10901080298
20
6.22032164475
30
-0.0363325360884
0
VERTEX
8
0
100
AcDb3dPolylineVertex
10
-1.10963882597
20
6.12777722943
30
-0.0356639303323
0
VERTEX
8
0
100
AcDb3dPolylineVertex
10
3.13742973808
20
6.19321779127
30
-0.067872832805
0
VERTEX
8
0
100
AcDb3dPolylineVertex
10
3.1085962708
20
6.86546850499
30
-0.0724796254361
0
VERTEX
8
0
100
AcDb3dPolylineVertex
10
3.07671409774
20
10.3929809868
30
-0.0975453869818
0
VERTEX
8
0
100
AcDb3dPolylineVertex
10
-1.15565437569
20
10.4200430049
30
-0.0661099219276
0
VERTEX
8
0
100
AcDb3dPolylineVertex
10
-1.12964389772
20
9.40669614509
30
-0.0590351990517
0
SEQEND
0
POLYLINE
8
1
70
64
66
1
10
0
20
0
30
0
71
9
72
7
0
VERTEX
8
1
10
3.07671409774
20
10.3929809868
30
-0.0975453869818
70
192
0
VERTEX
8
1
10
3.1085962708
20
6.86546850499
30
-0.0724796254361
70
192
0
VERTEX
8
1
10
3.13742973808
20
6.19321779127
30
-0.067872832805
70
192
0
VERTEX
8
1
10
-1.15565437569
20
10.4200430049
30
-0.0661099219276
70
192
0
VERTEX
8
1
10
-1.12964389772
20
9.40669614509
30
-0.0590351990517
70
192
0
VERTEX
8
1
10
-1.39006102833
20
9.41217278527
30
-0.057128322121
70
192
0
VERTEX
8
1
10
-1.10901080298
20
6.22032164475
30
-0.0363325360884
70
192
0
VERTEX
8
1
10
-1.10963882597
20
6.12777722943
30
-0.0356639303323
70
192
0
VERTEX
8
1
10
-1.35385870462
20
6.211110145
30
-0.034436631989
70
192
0
VERTEX
8
1
10
0
20
0
30
0
70
128
71
8
72
3
73
7
0
VERTEX
8
1
10
0
20
0
30
0
70
128
71
3
72
2
73
7
0
VERTEX
8
1
10
0
20
0
30
0
70
128
71
7
72
2
73
5
0
VERTEX
8
1
10
0
20
0
30
0
70
128
71
6
72
7
73
5
0
VERTEX
8
1
10
0
20
0
30
0
70
128
71
6
72
9
73
7
0
VERTEX
8
1
10
0
20
0
30
0
70
128
71
2
72
1
73
5
0
VERTEX
8
1
10
0
20
0
30
0
70
128
71
5
72
1
73
4
0
SEQEND
0
POLYLINE
8
0
39
0
100
AcDb3dPolyline
66
1
10
0
20
0
30
0
70
9
0
VERTEX
8
0
100
AcDb3dPolylineVertex
10
-1.35385870462
20
6.211110145
30
-0.034436631989
0
VERTEX
8
0
100
AcDb3dPolylineVertex
10
-1.39006102833
20
9.41217278527
30
-0.057128322121
0
VERTEX
8
0
100
AcDb3dPolylineVertex
10
-1.37773113228
20
9.43352162291
30
1.85296792444
0
VERTEX
8
0
100
AcDb3dPolylineVertex
10
-1.33183478343
20
6.55860119445
30
3.90689158263
0
VERTEX
8
0
100
AcDb3dPolylineVertex
10
-1.32817496988
20
6.23864714415
30
3.91544063704
0
SEQEND
0
POLYLINE
8
0
39
0
100
AcDb3dPolyline
66
1
10
0
20
0
30
0
70
9
0
VERTEX
8
0
100
AcDb3dPolylineVertex
10
-1.37445956811
20
9.01748646775
30
1.63809095316
0
VERTEX
8
0
100
AcDb3dPolylineVertex
10
-1.38024882933
20
9.01413686436
30
0.752658386474
0
VERTEX
8
0
100
AcDb3dPolylineVertex
10
-1.3682771473
20
7.95710585033
30
0.762772277955
0
VERTEX
8
0
100
AcDb3dPolylineVertex
10
-1.35780919393
20
7.97265154119
30
2.38002479075
0
SEQEND
0
POLYLINE
8
0
39
0
100
AcDb3dPolyline
66
1
10
0
20
0
30
0
70
9
0
VERTEX
8
0
100
AcDb3dPolylineVertex
10
-1.33674502399
20
6.65459998677
30
3.32505912885
0
VERTEX
8
0
100
AcDb3dPolylineVertex
10
-1.35324630197
20
7.69361503482
30
2.59582081147
0
VERTEX
8
0
100
AcDb3dPolylineVertex
10
-1.36521384915
20
7.68606208102
30
0.76438018386
0
VERTEX
8
0
100
AcDb3dPolylineVertex
10
-1.35331842276
20
6.63547478945
30
0.7739338553
0
SEQEND
0
POLYLINE
8
1
70
64
66
1
10
0
20
0
30
0
71
13
72
15
0
VERTEX
8
1
10
-1.37773113228
20
9.43352162291
30
1.85296792444
70
192
0
VERTEX
8
1
10
-1.39006102833
20
9.41217278527
30
-0.057128322121
70
192
0
VERTEX
8
1
10
-1.37445956811
20
9.01748646775
30
1.63809095316
70
192
0
VERTEX
8
1
10
-1.38024882933
20
9.01413686436
30
0.752658386474
70
192
0
VERTEX
8
1
10
-1.35780919393
20
7.97265154119
30
2.38002479075
70
192
0
VERTEX
8
1
10
-1.3682771473
20
7.95710585033
30
0.762772277955
70
192
0
VERTEX
8
1
10
-1.35324630197
20
7.69361503482
30
2.59582081147
70
192
0
VERTEX
8
1
10
-1.36521384915
20
7.68606208102
30
0.76438018386
70
192
0
VERTEX
8
1
10
-1.33674502399
20
6.65459998677
30
3.32505912885
70
192
0
VERTEX
8
1
10
-1.35331842276
20
6.63547478945
30
0.7739338553
70
192
0
VERTEX
8
1
10
-1.33183478343
20
6.55860119445
30
3.90689158263
70
192
0
VERTEX
8
1
10
-1.32817496988
20
6.23864714415
30
3.91544063704
70
192
0
VERTEX
8
1
10
-1.35385870462
20
6.211110145
30
-0.034436631989
70
192
0
VERTEX
8
1
10
0
20
0
30
0
70
128
71
6
72
13
73
2
0
VERTEX
8
1
10
0
20
0
30
0
70
128
71
13
72
6
73
8
0
VERTEX
8
1
10
0
20
0
30
0
70
128
71
13
72
8
73
10
0
VERTEX
8
1
10
0
20
0
30
0
70
128
71
12
72
13
73
10
0
VERTEX
8
1
10
0
20
0
30
0
70
128
71
9
72
12
73
10
0
VERTEX
8
1
10
0
20
0
30
0
70
128
71
12
72
9
73
11
0
VERTEX
8
1
10
0
20
0
30
0
70
128
71
11
72
9
73
7
0
VERTEX
8
1
10
0
20
0
30
0
70
128
71
1
72
11
73
7
0
VERTEX
8
1
10
0
20
0
30
0
70
128
71
1
72
7
73
5
0
VERTEX
8
1
10
0
20
0
30
0
70
128
71
3
72
1
73
5
0
VERTEX
8
1
10
0
20
0
30
0
70
128
71
3
72
4
73
1
0
VERTEX
8
1
10
0
20
0
30
0
70
128
71
1
72
4
73
2
0
VERTEX
8
1
10
0
20
0
30
0
70
128
71
6
72
2
73
4
0
VERTEX
8
1
10
0
20
0
30
0
70
128
71
8
72
5
73
7
0
VERTEX
8
1
10
0
20
0
30
0
70
128
71
8
72
6
73
5
0
SEQEND
0
POLYLINE
8
0
39
0
100
AcDb3dPolyline
66
1
10
0
20
0
30
0
70
9
0
VERTEX
8
0
100
AcDb3dPolylineVertex
10
3.14609960823
20
7.72771618079
30
3.02708928746
0
VERTEX
8
0
100
AcDb3dPolylineVertex
10
3.16042873086
20
6.63388823397
30
3.80827780043
0
VERTEX
8
0
100
AcDb3dPolylineVertex
10
-1.33183478343
20
6.55860119445
30
3.90689158263
0
VERTEX
8
0
100
AcDb3dPolylineVertex
10
-1.35094566075
20
7.7558289023
30
3.0518915047
0
SEQEND
0
POLYLINE
8
1
70
64
66
1
10
0
20
0
30
0
71
4
72
2
0
VERTEX
8
1
10
-1.35094566075
20
7.7558289023
30
3.0518915047
70
192
0
VERTEX
8
1
10
-1.33183478343
20
6.55860119445
30
3.90689158263
70
192
0
VERTEX
8
1
10
3.14609960823
20
7.72771618079
30
3.02708928746
70
192
0
VERTEX
8
1
10
3.16042873086
20
6.63388823397
30
3.80827780043
70
192
0
VERTEX
8
1
10
0
20
0
30
0
70
128
71
4
72
2
73
1
0
VERTEX
8
1
10
0
20
0
30
0
70
128
71
3
72
4
73
1
0
SEQEND
0
POLYLINE
8
0
39
0
100
AcDb3dPolyline
66
1
10
0
20
0
30
0
70
9
0
VERTEX
8
0
100
AcDb3dPolylineVertex
10
-1.15565437569
20
10.4200430049
30
-0.0661099219276
0
VERTEX
8
0
100
AcDb3dPolylineVertex
10
3.07671409774
20
10.3929809868
30
-0.0975453869818
0
VERTEX
8
0
100
AcDb3dPolylineVertex
10
3.08757037475
20
10.3772233111
30
1.11371717346
0
VERTEX
8
0
100
AcDb3dPolylineVertex
10
-1.15019104761
20
10.4042256805
30
1.15245387914
0
SEQEND
0
POLYLINE
8
1
70
64
66
1
10
0
20
0
30
0
71
4
72
2
0
VERTEX
8
1
10
3.08757037475
20
10.3772233111
30
1.11371717346
70
192
0
VERTEX
8
1
10
3.07671409774
20
10.3929809868
30
-0.0975453869818
70
192
0
VERTEX
8
1
10
-1.15019104761
20
10.4042256805
30
1.15245387914
70
192
0
VERTEX
8
1
10
-1.15565437569
20
10.4200430049
30
-0.0661099219276
70
192
0
VERTEX
8
1
10
0
20
0
30
0
70
128
71
4
72
2
73
1
0
VERTEX
8
1
10
0
20
0
30
0
70
128
71
3
72
4
73
1
0
SEQEND
0
POLYLINE
8
0
39
0
100
AcDb3dPolyline
66
1
10
0
20
0
30
0
70
9
0
VERTEX
8
0
100
AcDb3dPolylineVertex
10
-1.12964389772
20
9.40669614509
30
-0.0590351990517
0
VERTEX
8
0
100
AcDb3dPolylineVertex
10
-1.15565437569
20
10.4200430049
30
-0.0661099219276
0
VERTEX
8
0
100
AcDb3dPolylineVertex
10
-1.15019104761
20
10.4042256805
30
1.15245387914
0
VERTEX
8
0
100
AcDb3dPolylineVertex
10
-1.12225718066
20
9.42817387514
30
1.85330518337
0
SEQEND
0
POLYLINE
8
1
70
64
66
1
10
0
20
0
30
0
71
4
72
2
0
VERTEX
8
1
10
-1.15019104761
20
10.4042256805
30
1.15245387914
70
192
0
VERTEX
8
1
10
-1.15565437569
20
10.4200430049
30
-0.0661099219276
70
192
0
VERTEX
8
1
10
-1.12225718066
20
9.42817387514
30
1.85330518337
70
192
0
VERTEX
8
1
10
-1.12964389772
20
9.40669614509
30
-0.0590351990517
70
192
0
VERTEX
8
1
10
0
20
0
30
0
70
128
71
4
72
2
73
1
0
VERTEX
8
1
10
0
20
0
30
0
70
128
71
4
72
1
73
3
0
SEQEND
0
POLYLINE
8
0
39
0
100
AcDb3dPolyline
66
1
10
0
20
0
30
0
70
9
0
VERTEX
8
0
100
AcDb3dPolylineVertex
10
-1.39006102833
20
9.41217278527
30
-0.057128322121
0
VERTEX
8
0
100
AcDb3dPolylineVertex
10
-1.12964389772
20
9.40669614509
30
-0.0590351990517
0
VERTEX
8
0
100
AcDb3dPolylineVertex
10
-1.12225718066
20
9.42817387514
30
1.85330518337
0
VERTEX
8
0
100
AcDb3dPolylineVertex
10
-1.37773113228
20
9.43352162291
30
1.85296792444
0
SEQEND
0
POLYLINE
8
1
70
64
66
1
10
0
20
0
30
0
71
4
72
2
0
VERTEX
8
1
10
-1.12225718066
20
9.42817387514
30
1.85330518337
70
192
0
VERTEX
8
1
10
-1.12964389772
20
9.40669614509
30
-0.0590351990517
70
192
0
VERTEX
8
1
10
-1.37773113228
20
9.43352162291
30
1.85296792444
70
192
0
VERTEX
8
1
10
-1.39006102833
20
9.41217278527
30
-0.057128322121
70
192
0
VERTEX
8
1
10
0
20
0
30
0
70
128
71
4
72
2
73
1
0
VERTEX
8
1
10
0
20
0
30
0
70
128
71
4
72
1
73
3
0
SEQEND
0
POLYLINE
8
0
39
0
100
AcDb3dPolyline
66
1
10
0
20
0
30
0
70
9
0
VERTEX
8
0
100
AcDb3dPolylineVertex
10
-1.35094566075
20
7.7558289023
30
3.0518915047
0
VERTEX
8
0
100
AcDb3dPolylineVertex
10
-1.35376461239
20
7.75243714961
30
2.61772814821
0
VERTEX
8
0
100
AcDb3dPolylineVertex
10
3.14311077887
20
7.72428408522
30
2.58764774482
0
VERTEX
8
0
100
AcDb3dPolylineVertex
10
3.14609960823
20
7.72771618079
30
3.02708928746
0
SEQEND
0
POLYLINE
8
1
70
64
66
1
10
0
20
0
30
0
71
4
72
2
0
VERTEX
8
1
10
3.14609960823
20
7.72771618079
30
3.02708928746
70
192
0
VERTEX
8
1
10
3.14311077887
20
7.72428408522
30
2.58764774482
70
192
0
VERTEX
8
1
10
-1.35094566075
20
7.7558289023
30
3.0518915047
70
192
0
VERTEX
8
1
10
-1.35376461239
20
7.75243714961
30
2.61772814821
70
192
0
VERTEX
8
1
10
0
20
0
30
0
70
128
71
4
72
2
73
1
0
VERTEX
8
1
10
0
20
0
30
0
70
128
71
4
72
1
73
3
0
SEQEND
0
POLYLINE
8
0
39
0
100
AcDb3dPolyline
66
1
10
0
20
0
30
0
70
9
0
VERTEX
8
0
100
AcDb3dPolylineVertex
10
-1.10963882597
20
6.12777722943
30
-0.0356639303323
0
VERTEX
8
0
100
AcDb3dPolylineVertex
10
-1.10901080298
20
6.22032164475
30
-0.0363325360884
0
VERTEX
8
0
100
AcDb3dPolylineVertex
10
-1.08639527839
20
6.24371253438
30
3.91010580031
0
VERTEX
8
0
100
AcDb3dPolylineVertex
10
-1.0815736047
20
6.15180891213
30
3.91248036621
0
SEQEND
0
POLYLINE
8
1
70
64
66
1
10
0
20
0
30
0
71
4
72
2
0
VERTEX
8
1
10
-1.08639527839
20
6.24371253438
30
3.91010580031
70
192
0
VERTEX
8
1
10
-1.10901080298
20
6.22032164475
30
-0.0363325360884
70
192
0
VERTEX
8
1
10
-1.0815736047
20
6.15180891213
30
3.91248036621
70
192
0
VERTEX
8
1
10
-1.10963882597
20
6.12777722943
30
-0.0356639303323
70
192
0
VERTEX
8
1
10
0
20
0
30
0
70
128
71
4
72
1
73
3
0
VERTEX
8
1
10
0
20
0
30
0
70
128
71
4
72
2
73
1
0
SEQEND
0
POLYLINE
8
0
39
0
100
AcDb3dPolyline
66
1
10
0
20
0
30
0
70
9
0
VERTEX
8
0
100
AcDb3dPolylineVertex
10
3.12286728091
20
7.89586506381
30
2.58629285229
0
VERTEX
8
0
100
AcDb3dPolylineVertex
10
3.14311077887
20
7.72428408522
30
2.58764774482
0
VERTEX
8
0
100
AcDb3dPolylineVertex
10
-1.35376461239
20
7.75243714961
30
2.61772814821
0
VERTEX
8
0
100
AcDb3dPolylineVertex
10
-1.35580157219
20
7.93238702477
30
2.6161778733
0
SEQEND
0
POLYLINE
8
1
70
64
66
1
10
0
20
0
30
0
71
4
72
2
0
VERTEX
8
1
10
-1.35376461239
20
7.75243714961
30
2.61772814821
70
192
0
VERTEX
8
1
10
-1.35580157219
20
7.93238702477
30
2.6161778733
70
192
0
VERTEX
8
1
10
3.14311077887
20
7.72428408522
30
2.58764774482
70
192
0
VERTEX
8
1
10
3.12286728091
20
7.89586506381
30
2.58629285229
70
192
0
VERTEX
8
1
10
0
20
0
30
0
70
128
71
4
72
3
73
1
0
VERTEX
8
1
10
0
20
0
30
0
70
128
71
2
72
4
73
1
0
SEQEND
0
POLYLINE
8
0
39
0
100
AcDb3dPolyline
66
1
10
0
20
0
30
0
70
9
0
VERTEX
8
0
100
AcDb3dPolylineVertex
10
-1.35580157219
20
7.93238702477
30
2.6161778733
0
VERTEX
8
0
100
AcDb3dPolylineVertex
10
-1.35373737969
20
7.932909121
30
2.93073899161
0
VERTEX
8
0
100
AcDb3dPolylineVertex
10
3.1255984076
20
7.89637268848
30
2.89553772253
0
VERTEX
8
0
100
AcDb3dPolylineVertex
10
3.12286728091
20
7.89586506381
30
2.58629285229
0
SEQEND
0
POLYLINE
8
1
70
64
66
1
10
0
20
0
30
0
71
4
72
2
0
VERTEX
8
1
10
-1.35580157219
20
7.93238702477
30
2.6161778733
70
192
0
VERTEX
8
1
10
-1.35373737969
20
7.932909121
30
2.93073899161
70
192
0
VERTEX
8
1
10
3.12286728091
20
7.89586506381
30
2.58629285229
70
192
0
VERTEX
8
1
10
3.1255984076
20
7.89637268848
30
2.89553772253
70
192
0
VERTEX
8
1
10
0
20
0
30
0
70
128
71
4
72
3
73
2
0
VERTEX
8
1
10
0
20
0
30
0
70
128
71
3
72
1
73
2
0
SEQEND
0
POLYLINE
8
0
39
0
100
AcDb3dPolyline
66
1
10
0
20
0
30
0
70
9
0
VERTEX
8
0
100
AcDb3dPolylineVertex
10
3.16042873086
20
6.63388823397
30
3.80827780043
0
VERTEX
8
0
100
AcDb3dPolylineVertex
10
3.1639237437
20
6.21686152286
30
3.8194479785
0
VERTEX
8
0
100
AcDb3dPolylineVertex
10
-1.0815736047
20
6.15180891213
30
3.91248036621
0
VERTEX
8
0
100
AcDb3dPolylineVertex
10
-1.08639527839
20
6.24371253438
30
3.91010580031
0
VERTEX
8
0
100
AcDb3dPolylineVertex
10
-1.32817496988
20
6.23864714415
30
3.91544063704
0
VERTEX
8
0
100
AcDb3dPolylineVertex
10
-1.33183478343
20
6.55860119445
30
3.90689158263
0
SEQEND
0
POLYLINE
8
1
70
64
66
1
10
0
20
0
30
0
71
6
72
4
0
VERTEX
8
1
10
-1.32817496988
20
6.23864714415
30
3.91544063704
70
192
0
VERTEX
8
1
10
-1.0815736047
20
6.15180891213
30
3.91248036621
70
192
0
VERTEX
8
1
10
-1.08639527839
20
6.24371253438
30
3.91010580031
70
192
0
VERTEX
8
1
10
-1.33183478343
20
6.55860119445
30
3.90689158263
70
192
0
VERTEX
8
1
10
3.1639237437
20
6.21686152286
30
3.8194479785
70
192
0
VERTEX
8
1
10
3.16042873086
20
6.63388823397
30
3.80827780043
70
192
0
VERTEX
8
1
10
0
20
0
30
0
70
128
71
3
72
6
73
5
0
VERTEX
8
1
10
0
20
0
30
0
70
128
71
4
72
6
73
3
0
VERTEX
8
1
10
0
20
0
30
0
70
128
71
4
72
3
73
1
0
VERTEX
8
1
10
0
20
0
30
0
70
128
71
3
72
5
73
2
0
SEQEND
0
POLYLINE
8
0
39
0
100
AcDb3dPolyline
66
1
10
0
20
0
30
0
70
9
0
VERTEX
8
0
100
AcDb3dPolylineVertex
10
-1.35373737969
20
7.932909121
30
2.93073899161
0
VERTEX
8
0
100
AcDb3dPolylineVertex
10
-1.37773113228
20
9.43352162291
30
1.85296792444
0
VERTEX
8
0
100
AcDb3dPolylineVertex
10
-1.12225718066
20
9.42817387514
30
1.85330518337
0
VERTEX
8
0
100
AcDb3dPolylineVertex
10
-1.15019104761
20
10.4042256805
30
1.15245387914
0
VERTEX
8
0
100
AcDb3dPolylineVertex
10
3.08757037475
20
10.3772233111
30
1.11371717346
0
VERTEX
8
0
100
AcDb3dPolylineVertex
10
3.1255984076
20
7.89637268848
30
2.89553772253
0
SEQEND
0
POLYLINE
8
1
70
64
66
1
10
0
20
0
30
0
71
6
72
4
0
VERTEX
8
1
10
-1.15019104761
20
10.4042256805
30
1.15245387914
70
192
0
VERTEX
8
1
10
-1.37773113228
20
9.43352162291
30
1.85296792444
70
192
0
VERTEX
8
1
10
-1.12225718066
20
9.42817387514
30
1.85330518337
70
192
0
VERTEX
8
1
10
3.08757037475
20
10.3772233111
30
1.11371717346
70
192
0
VERTEX
8
1
10
-1.35373737969
20
7.932909121
30
2.93073899161
70
192
0
VERTEX
8
1
10
3.1255984076
20
7.89637268848
30
2.89553772253
70
192
0
VERTEX
8
1
10
0
20
0
30
0
70
128
71
5
72
3
73
6
0
VERTEX
8
1
10
0
20
0
30
0
70
128
71
5
72
2
73
3
0
VERTEX
8
1
10
0
20
0
30
0
70
128
71
6
72
3
73
4
0
VERTEX
8
1
10
0
20
0
30
0
70
128
71
3
72
1
73
4
0
SEQEND
0
POLYLINE
8
0
39
0
100
AcDb3dPolyline
66
1
10
0
20
0
30
0
70
9
0
VERTEX
8
0
100
AcDb3dPolylineVertex
10
-1.32755303659
20
4.18034422267
30
0.794212919461
0
VERTEX
8
0
100
AcDb3dPolylineVertex
10
-1.31542594063
20
4.19206338307
30
2.41838599975
0
VERTEX
8
0
100
AcDb3dPolylineVertex
10
-1.50989940102
20
4.19669224267
30
2.41870218659
0
VERTEX
8
0
100
AcDb3dPolylineVertex
10
-1.52197627836
20
4.18502164179
30
0.801259546344
0
SEQEND
0
POLYLINE
8
1
70
64
66
1
10
0
20
0
30
0
71
4
72
2
0
VERTEX
8
1
10
-1.31542594063
20
4.19206338307
30
2.41838599975
70
192
0
VERTEX
8
1
10
-1.32755303659
20
4.18034422267
30
0.794212919461
70
192
0
VERTEX
8
1
10
-1.50989940102
20
4.19669224267
30
2.41870218659
70
192
0
VERTEX
8
1
10
-1.52197627836
20
4.18502164179
30
0.801259546344
70
192
0
VERTEX
8
1
10
0
20
0
30
0
70
128
71
4
72
2
73
1
0
VERTEX
8
1
10
0
20
0
30
0
70
128
71
3
72
4
73
1
0
SEQEND
0
POLYLINE
8
0
39
0
100
AcDb3dPolyline
66
1
10
0
20
0
30
0
70
9
0
VERTEX
8
0
100
AcDb3dPolylineVertex
10
-1.31709466678
20
3.13713293434
30
0.802879920412
0
VERTEX
8
0
100
AcDb3dPolylineVertex
10
-1.32755303659
20
4.18034422267
30
0.794212919461
0
VERTEX
8
0
100
AcDb3dPolylineVertex
10
-1.52197627836
20
4.18502164179
30
0.801259546344
0
VERTEX
8
0
100
AcDb3dPolylineVertex
10
-1.51142415119
20
3.13246702782
30
0.810004191669
0
SEQEND
0
POLYLINE
8
1
70
64
66
1
10
0
20
0
30
0
71
4
72
2
0
VERTEX
8
1
10
-1.32755303659
20
4.18034422267
30
0.794212919461
70
192
0
VERTEX
8
1
10
-1.52197627836
20
4.18502164179
30
0.801259546344
70
192
0
VERTEX
8
1
10
-1.31709466678
20
3.13713293434
30
0.802879920412
70
192
0
VERTEX
8
1
10
-1.51142415119
20
3.13246702782
30
0.810004191669
70
192
0
VERTEX
8
1
10
0
20
0
30
0
70
128
71
4
72
3
73
1
0
VERTEX
8
1
10
0
20
0
30
0
70
128
71
4
72
1
73
2
0
SEQEND
0
POLYLINE
8
0
39
0
100
AcDb3dPolyline
66
1
10
0
20
0
30
0
70
9
0
VERTEX
8
0
100
AcDb3dPolylineVertex
10
6.88775939799
20
-0.280898801622
30
2.397793958
0
VERTEX
8
0
100
AcDb3dPolylineVertex
10
7.91852475029
20
-0.297003136202
30
1.66563798819
0
VERTEX
8
0
100
AcDb3dPolylineVertex
10
7.91528321629
20
-0.469235430193
30
1.66844329546
0
VERTEX
8
0
100
AcDb3dPolylineVertex
10
6.8824272104
20
-0.45309866721
30
2.40208451416
0
SEQEND
0
POLYLINE
8
1
70
64
66
1
10
0
20
0
30
0
71
4
72
2
0
VERTEX
8
1
10
6.8824272104
20
-0.45309866721
30
2.40208451416
70
192
0
VERTEX
8
1
10
6.88775939799
20
-0.280898801622
30
2.397793958
70
192
0
VERTEX
8
1
10
7.91528321629
20
-0.469235430193
30
1.66844329546
70
192
0
VERTEX
8
1
10
7.91852475029
20
-0.297003136202
30
1.66563798819
70
192
0
VERTEX
8
1
10
0
20
0
30
0
70
128
71
4
72
3
73
2
0
VERTEX
8
1
10
0
20
0
30
0
70
128
71
3
72
1
73
2
0
SEQEND
0
POLYLINE
8
0
39
0
100
AcDb3dPolyline
66
1
10
0
20
0
30
0
70
9
0
VERTEX
8
0
100
AcDb3dPolylineVertex
10
11.5402852155
20
2.79115356937
30
1.92889666818
0
VERTEX
8
0
100
AcDb3dPolylineVertex
10
12.1278982201
20
2.79367407364
30
1.93195910863
0
VERTEX
8
0
100
AcDb3dPolylineVertex
10
12.1235753362
20
2.26646702678
30
1.94229038433
0
VERTEX
8
0
100
AcDb3dPolylineVertex
10
11.5473233776
20
2.26399543306
30
1.93928714831
0
SEQEND
0
POLYLINE
8
1
70
64
66
1
10
0
20
0
30
0
71
4
72
2
0
VERTEX
8
1
10
11.5473233776
20
2.26399543306
30
1.93928714831
70
192
0
VERTEX
8
1
10
11.5402852155
20
2.79115356937
30
1.92889666818
70
192
0
VERTEX
8
1
10
12.1235753362
20
2.26646702678
30
1.94229038433
70
192
0
VERTEX
8
1
10
12.1278982201
20
2.79367407364
30
1.93195910863
70
192
0
VERTEX
8
1
10
0
20
0
30
0
70
128
71
4
72
3
73
2
0
VERTEX
8
1
10
0
20
0
30
0
70
128
71
3
72
1
73
2
0
SEQEND
0
POLYLINE
8
0
39
0
100
AcDb3dPolyline
66
1
10
0
20
0
30
0
70
9
0
VERTEX
8
0
100
AcDb3dPolylineVertex
10
11.5342642515
20
1.53220407664
30
1.05792794476
0
VERTEX
8
0
100
AcDb3dPolylineVertex
10
11.5402852155
20
2.79115356937
30
1.92889666818
0
VERTEX
8
0
100
AcDb3dPolylineVertex
10
11.5473233776
20
2.26399543306
30
1.93928714831
0
VERTEX
8
0
100
AcDb3dPolylineVertex
10
11.543009759
20
1.36202980791
30
1.31528784783
0
SEQEND
0
POLYLINE
8
1
70
64
66
1
10
0
20
0
30
0
71
4
72
2
0
VERTEX
8
1
10
11.5402852155
20
2.79115356937
30
1.92889666818
70
192
0
VERTEX
8
1
10
11.5473233776
20
2.26399543306
30
1.93928714831
70
192
0
VERTEX
8
1
10
11.5342642515
20
1.53220407664
30
1.05792794476
70
192
0
VERTEX
8
1
10
11.543009759
20
1.36202980791
30
1.31528784783
70
192
0
VERTEX
8
1
10
0
20
0
30
0
70
128
71
4
72
3
73
2
0
VERTEX
8
1
10
0
20
0
30
0
70
128
71
1
72
2
73
3
0
SEQEND
0
POLYLINE
8
0
39
0
100
AcDb3dPolyline
66
1
10
0
20
0
30
0
70
9
0
VERTEX
8
0
100
AcDb3dPolylineVertex
10
12.123361036
20
1.53013017968
30
1.05781529827
0
VERTEX
8
0
100
AcDb3dPolylineVertex
10
11.5342642515
20
1.53220407664
30
1.05792794476
0
VERTEX
8
0
100
AcDb3dPolylineVertex
10
11.543009759
20
1.36202980791
30
1.31528784783
0
VERTEX
8
0
100
AcDb3dPolylineVertex
10
12.1203205503
20
1.3599974534
30
1.31517744249
0
SEQEND
0
POLYLINE
8
1
70
64
66
1
10
0
20
0
30
0
71
4
72
2
0
VERTEX
8
1
10
12.1203205503
20
1.3599974534
30
1.31517744249
70
192
0
VERTEX
8
1
10
11.543009759
20
1.36202980791
30
1.31528784783
70
192
0
VERTEX
8
1
10
12.123361036
20
1.53013017968
30
1.05781529827
70
192
0
VERTEX
8
1
10
11.5342642515
20
1.53220407664
30
1.05792794476
70
192
0
VERTEX
8
1
10
0
20
0
30
0
70
128
71
3
72
4
73
2
0
VERTEX
8
1
10
0
20
0
30
0
70
128
71
3
72
2
73
1
0
SEQEND
0
POLYLINE
8
0
39
0
100
AcDb3dPolyline
66
1
10
0
20
0
30
0
70
9
0
VERTEX
8
0
100
AcDb3dPolylineVertex
10
12.1278982201
20
2.79367407364
30
1.93195910863
0
VERTEX
8
0
100
AcDb3dPolylineVertex
10
12.123361036
20
1.53013017968
30
1.05781529827
0
VERTEX
8
0
100
AcDb3dPolylineVertex
10
12.1203205503
20
1.3599974534
30
1.31517744249
0
VERTEX
8
0
100
AcDb3dPolylineVertex
10
12.1235753362
20
2.26646702678
30
1.94229038433
0
SEQEND
0
POLYLINE
8
1
70
64
66
1
10
0
20
0
30
0
71
4
72
2
0
VERTEX
8
1
10
12.1203205503
20
1.3599974534
30
1.31517744249
70
192
0
VERTEX
8
1
10
12.123361036
20
1.53013017968
30
1.05781529827
70
192
0
VERTEX
8
1
10
12.1235753362
20
2.26646702678
30
1.94229038433
70
192
0
VERTEX
8
1
10
12.1278982201
20
2.79367407364
30
1.93195910863
70
192
0
VERTEX
8
1
10
0
20
0
30
0
70
128
71
4
72
2
73
3
0
VERTEX
8
1
10
0
20
0
30
0
70
128
71
3
72
2
73
1
0
SEQEND
0
POLYLINE
8
0
39
0
100
AcDb3dPolyline
66
1
10
0
20
0
30
0
70
9
0
VERTEX
8
0
100
AcDb3dPolylineVertex
10
12.1203205503
20
1.3599974534
30
1.31517744249
0
VERTEX
8
0
100
AcDb3dPolylineVertex
10
11.543009759
20
1.36202980791
30
1.31528784783
0
VERTEX
8
0
100
AcDb3dPolylineVertex
10
11.5473233776
20
2.26399543306
30
1.93928714831
0
VERTEX
8
0
100
AcDb3dPolylineVertex
10
12.1235753362
20
2.26646702678
30
1.94229038433
0
SEQEND
0
POLYLINE
8
1
70
64
66
1
10
0
20
0
30
0
71
4
72
2
0
VERTEX
8
1
10
11.5473233776
20
2.26399543306
30
1.93928714831
70
192
0
VERTEX
8
1
10
12.1235753362
20
2.26646702678
30
1.94229038433
70
192
0
VERTEX
8
1
10
11.543009759
20
1.36202980791
30
1.31528784783
70
192
0
VERTEX
8
1
10
12.1203205503
20
1.3599974534
30
1.31517744249
70
192
0
VERTEX
8
1
10
0
20
0
30
0
70
128
71
4
72
3
73
1
0
VERTEX
8
1
10
0
20
0
30
0
70
128
71
4
72
1
73
2
0
SEQEND
0
POLYLINE
8
0
39
0
100
AcDb3dPolyline
66
1
10
0
20
0
30
0
70
9
0
VERTEX
8
0
100
AcDb3dPolylineVertex
10
10.1939511421
20
1.54317299259
30
1.06250820819
0
VERTEX
8
0
100
AcDb3dPolylineVertex
10
10.2074982798
20
2.80819256579
30
1.93769368502
0
VERTEX
8
0
100
AcDb3dPolylineVertex
10
10.2480647602
20
2.27482248041
30
1.94648691786
0
VERTEX
8
0
100
AcDb3dPolylineVertex
10
10.2383709508
20
1.36961124635
30
1.32022940106
0
SEQEND
0
POLYLINE
8
1
70
64
66
1
10
0
20
0
30
0
71
4
72
2
0
VERTEX
8
1
10
10.2074982798
20
2.80819256579
30
1.93769368502
70
192
0
VERTEX
8
1
10
10.2480647602
20
2.27482248041
30
1.94648691786
70
192
0
VERTEX
8
1
10
10.1939511421
20
1.54317299259
30
1.06250820819
70
192
0
VERTEX
8
1
10
10.2383709508
20
1.36961124635
30
1.32022940106
70
192
0
VERTEX
8
1
10
0
20
0
30
0
70
128
71
4
72
3
73
2
0
VERTEX
8
1
10
0
20
0
30
0
70
128
71
1
72
2
73
3
0
SEQEND
0
POLYLINE
8
0
39
0
100
AcDb3dPolyline
66
1
10
0
20
0
30
0
70
9
0
VERTEX
8
0
100
AcDb3dPolylineVertex
10
10.8089542218
20
1.53769797845
30
1.06010079161
0
VERTEX
8
0
100
AcDb3dPolylineVertex
10
10.1939511421
20
1.54317299259
30
1.06250820819
0
VERTEX
8
0
100
AcDb3dPolylineVertex
10
10.2383709508
20
1.36961124635
30
1.32022940106
0
VERTEX
8
0
100
AcDb3dPolylineVertex
10
10.7729051597
20
1.3648528376
30
1.31813692877
0
SEQEND
0
POLYLINE
8
1
70
64
66
1
10
0
20
0
30
0
71
4
72
2
0
VERTEX
8
1
10
10.7729051597
20
1.3648528376
30
1.31813692877
70
192
0
VERTEX
8
1
10
10.2383709508
20
1.36961124635
30
1.32022940106
70
192
0
VERTEX
8
1
10
10.8089542218
20
1.53769797845
30
1.06010079161
70
192
0
VERTEX
8
1
10
10.1939511421
20
1.54317299259
30
1.06250820819
70
192
0
VERTEX
8
1
10
0
20
0
30
0
70
128
71
3
72
4
73
2
0
VERTEX
8
1
10
0
20
0
30
0
70
128
71
3
72
2
73
1
0
SEQEND
0
POLYLINE
8
0
39
0
100
AcDb3dPolyline
66
1
10
0
20
0
30
0
70
9
0
VERTEX
8
0
100
AcDb3dPolylineVertex
10
10.8213392409
20
2.79662141428
30
1.93106616879
0
VERTEX
8
0
100
AcDb3dPolylineVertex
10
10.8089542218
20
1.53769797845
30
1.06010079161
0
VERTEX
8
0
100
AcDb3dPolylineVertex
10
10.7729051597
20
1.3648528376
30
1.31813692877
0
VERTEX
8
0
100
AcDb3dPolylineVertex
10
10.7817583606
20
2.26476270609
30
1.94072473108
0
SEQEND
0
POLYLINE
8
1
70
64
66
1
10
0
20
0
30
0
71
4
72
2
0
VERTEX
8
1
10
10.7729051597
20
1.3648528376
30
1.31813692877
70
192
0
VERTEX
8
1
10
10.8089542218
20
1.53769797845
30
1.06010079161
70
192
0
VERTEX
8
1
10
10.7817583606
20
2.26476270609
30
1.94072473108
70
192
0
VERTEX
8
1
10
10.8213392409
20
2.79662141428
30
1.93106616879
70
192
0
VERTEX
8
1
10
0
20
0
30
0
70
128
71
4
72
2
73
3
0
VERTEX
8
1
10
0
20
0
30
0
70
128
71
3
72
2
73
1
0
SEQEND
0
POLYLINE
8
0
39
0
100
AcDb3dPolyline
66
1
10
0
20
0
30
0
70
9
0
VERTEX
8
0
100
AcDb3dPolylineVertex
10
10.2074982798
20
2.80819256579
30
1.93769368502
0
VERTEX
8
0
100
AcDb3dPolylineVertex
10
10.8213392409
20
2.79662141428
30
1.93106616879
0
VERTEX
8
0
100
AcDb3dPolylineVertex
10
10.7817583606
20
2.26476270609
30
1.94072473108
0
VERTEX
8
0
100
AcDb3dPolylineVertex
10
10.2480647602
20
2.27482248041
30
1.94648691786
0
SEQEND
0
POLYLINE
8
1
70
64
66
1
10
0
20
0
30
0
71
4
72
2
0
VERTEX
8
1
10
10.2480647602
20
2.27482248041
30
1.94648691786
70
192
0
VERTEX
8
1
10
10.2074982798
20
2.80819256579
30
1.93769368502
70
192
0
VERTEX
8
1
10
10.7817583606
20
2.26476270609
30
1.94072473108
70
192
0
VERTEX
8
1
10
10.8213392409
20
2.79662141428
30
1.93106616879
70
192
0
VERTEX
8
1
10
0
20
0
30
0
70
128
71
3
72
1
73
4
0
VERTEX
8
1
10
0
20
0
30
0
70
128
71
4
72
1
73
2
0
SEQEND
0
POLYLINE
8
0
39
0
100
AcDb3dPolyline
66
1
10
0
20
0
30
0
70
9
0
VERTEX
8
0
100
AcDb3dPolylineVertex
10
10.7817583606
20
2.26476270609
30
1.94072473108
0
VERTEX
8
0
100
AcDb3dPolylineVertex
10
10.7729051597
20
1.3648528376
30
1.31813692877
0
VERTEX
8
0
100
AcDb3dPolylineVertex
10
10.2383709508
20
1.36961124635
30
1.32022940106
0
VERTEX
8
0
100
AcDb3dPolylineVertex
10
10.2480647602
20
2.27482248041
30
1.94648691786
0
SEQEND
0
POLYLINE
8
1
70
64
66
1
10
0
20
0
30
0
71
4
72
2
0
VERTEX
8
1
10
10.2480647602
20
2.27482248041
30
1.94648691786
70
192
0
VERTEX
8
1
10
10.7817583606
20
2.26476270609
30
1.94072473108
70
192
0
VERTEX
8
1
10
10.2383709508
20
1.36961124635
30
1.32022940106
70
192
0
VERTEX
8
1
10
10.7729051597
20
1.3648528376
30
1.31813692877
70
192
0
VERTEX
8
1
10
0
20
0
30
0
70
128
71
4
72
3
73
2
0
VERTEX
8
1
10
0
20
0
30
0
70
128
71
3
72
1
73
2
0
SEQEND
0
POLYLINE
8
0
39
0
100
AcDb3dPolyline
66
1
10
0
20
0
30
0
70
9
0
VERTEX
8
0
100
AcDb3dPolylineVertex
10
9.4603481287
20
1.54760617463
30
1.06392919174
0
VERTEX
8
0
100
AcDb3dPolylineVertex
10
9.46739195006
20
2.82669810165
30
1.94883497055
0
VERTEX
8
0
100
AcDb3dPolylineVertex
10
9.47470797125
20
2.35382684676
30
1.9576830404
0
VERTEX
8
0
100
AcDb3dPolylineVertex
10
9.46940619919
20
1.39102570819
30
1.29159464861
0
SEQEND
0
POLYLINE
8
1
70
64
66
1
10
0
20
0
30
0
71
4
72
2
0
VERTEX
8
1
10
9.46739195006
20
2.82669810165
30
1.94883497055
70
192
0
VERTEX
8
1
10
9.47470797125
20
2.35382684676
30
1.9576830404
70
192
0
VERTEX
8
1
10
9.4603481287
20
1.54760617463
30
1.06392919174
70
192
0
VERTEX
8
1
10
9.46940619919
20
1.39102570819
30
1.29159464861
70
192
0
VERTEX
8
1
10
0
20
0
30
0
70
128
71
4
72
3
73
2
0
VERTEX
8
1
10
0
20
0
30
0
70
128
71
1
72
2
73
3
0
SEQEND
0
POLYLINE
8
0
39
0
100
AcDb3dPolyline
66
1
10
0
20
0
30
0
70
9
0
VERTEX
8
0
100
AcDb3dPolylineVertex
10
10.0598427846
20
1.54397394958
30
1.0627613585
0
VERTEX
8
0
100
AcDb3dPolylineVertex
10
9.4603481287
20
1.54760617463
30
1.06392919174
0
VERTEX
8
0
100
AcDb3dPolylineVertex
10
9.46940619919
20
1.39102570819
30
1.29159464861
0
VERTEX
8
0
100
AcDb3dPolylineVertex
10
10.0538305276
20
1.38748456497
30
1.29045627029
0
SEQEND
0
POLYLINE
8
1
70
64
66
1
10
0
20
0
30
0
71
4
72
2
0
VERTEX
8
1
10
10.0538305276
20
1.38748456497
30
1.29045627029
70
192
0
VERTEX
8
1
10
9.46940619919
20
1.39102570819
30
1.29159464861
70
192
0
VERTEX
8
1
10
10.0598427846
20
1.54397394958
30
1.0627613585
70
192
0
VERTEX
8
1
10
9.4603481287
20
1.54760617463
30
1.06392919174
70
192
0
VERTEX
8
1
10
0
20
0
30
0
70
128
71
3
72
4
73
2
0
VERTEX
8
1
10
0
20
0
30
0
70
128
71
3
72
2
73
1
0
SEQEND
0
POLYLINE
8
0
39
0
100
AcDb3dPolyline
66
1
10
0
20
0
30
0
70
9
0
VERTEX
8
0
100
AcDb3dPolylineVertex
10
10.0635503052
20
2.80410743818
30
1.93454427113
0
VERTEX
8
0
100
AcDb3dPolylineVertex
10
10.0598427846
20
1.54397394958
30
1.0627613585
0
VERTEX
8
0
100
AcDb3dPolylineVertex
10
10.0538305276
20
1.38748456497
30
1.29045627029
0
VERTEX
8
0
100
AcDb3dPolylineVertex
10
10.0566087236
20
2.33177721647
30
1.94373414509
0
SEQEND
0
POLYLINE
8
1
70
64
66
1
10
0
20
0
30
0
71
4
72
2
0
VERTEX
8
1
10
10.0538305276
20
1.38748456497
30
1.29045627029
70
192
0
VERTEX
8
1
10
10.0598427846
20
1.54397394958
30
1.0627613585
70
192
0
VERTEX
8
1
10
10.0566087236
20
2.33177721647
30
1.94373414509
70
192
0
VERTEX
8
1
10
10.0635503052
20
2.80410743818
30
1.93454427113
70
192
0
VERTEX
8
1
10
0
20
0
30
0
70
128
71
4
72
2
73
3
0
VERTEX
8
1
10
0
20
0
30
0
70
128
71
3
72
2
73
1
0
SEQEND
0
POLYLINE
8
0
39
0
100
AcDb3dPolyline
66
1
10
0
20
0
30
0
70
9
0
VERTEX
8
0
100
AcDb3dPolylineVertex
10
9.46739195006
20
2.82669810165
30
1.94883497055
0
VERTEX
8
0
100
AcDb3dPolylineVertex
10
10.0635503052
20
2.80410743818
30
1.93454427113
0
VERTEX
8
0
100
AcDb3dPolylineVertex
10
10.0566087236
20
2.33177721647
30
1.94373414509
0
VERTEX
8
0
100
AcDb3dPolylineVertex
10
9.47470797125
20
2.35382684676
30
1.9576830404
0
SEQEND
0
POLYLINE
8
1
70
64
66
1
10
0
20
0
30
0
71
4
72
2
0
VERTEX
8
1
10
9.47470797125
20
2.35382684676
30
1.9576830404
70
192
0
VERTEX
8
1
10
9.46739195006
20
2.82669810165
30
1.94883497055
70
192
0
VERTEX
8
1
10
10.0566087236
20
2.33177721647
30
1.94373414509
70
192
0
VERTEX
8
1
10
10.0635503052
20
2.80410743818
30
1.93454427113
70
192
0
VERTEX
8
1
10
0
20
0
30
0
70
128
71
3
72
1
73
4
0
VERTEX
8
1
10
0
20
0
30
0
70
128
71
4
72
1
73
2
0
SEQEND
0
POLYLINE
8
0
39
0
100
AcDb3dPolyline
66
1
10
0
20
0
30
0
70
9
0
VERTEX
8
0
100
AcDb3dPolylineVertex
10
10.0566087236
20
2.33177721647
30
1.94373414509
0
VERTEX
8
0
100
AcDb3dPolylineVertex
10
10.0538305276
20
1.38748456497
30
1.29045627029
0
VERTEX
8
0
100
AcDb3dPolylineVertex
10
9.46940619919
20
1.39102570819
30
1.29159464861
0
VERTEX
8
0
100
AcDb3dPolylineVertex
10
9.47470797125
20
2.35382684676
30
1.9576830404
0
SEQEND
0
POLYLINE
8
1
70
64
66
1
10
0
20
0
30
0
71
4
72
2
0
VERTEX
8
1
10
9.47470797125
20
2.35382684676
30
1.9576830404
70
192
0
VERTEX
8
1
10
10.0566087236
20
2.33177721647
30
1.94373414509
70
192
0
VERTEX
8
1
10
9.46940619919
20
1.39102570819
30
1.29159464861
70
192
0
VERTEX
8
1
10
10.0538305276
20
1.38748456497
30
1.29045627029
70
192
0
VERTEX
8
1
10
0
20
0
30
0
70
128
71
4
72
3
73
2
0
VERTEX
8
1
10
0
20
0
30
0
70
128
71
3
72
1
73
2
0
SEQEND
0
POLYLINE
8
0
39
0
100
AcDb3dPolyline
66
1
10
0
20
0
30
0
70
9
0
VERTEX
8
0
100
AcDb3dPolylineVertex
10
6.88272106534
20
-0.293030077122
30
0.775139627363
0
VERTEX
8
0
100
AcDb3dPolylineVertex
10
6.88775939799
20
-0.280898801622
30
2.397793958
0
VERTEX
8
0
100
AcDb3dPolylineVertex
10
6.8824272104
20
-0.45309866721
30
2.40208451416
0
VERTEX
8
0
100
AcDb3dPolylineVertex
10
6.87739161503
20
-0.465223725411
30
0.780291146748
0
SEQEND
0
POLYLINE
8
1
70
64
66
1
10
0
20
0
30
0
71
4
72
2
0
VERTEX
8
1
10
6.88775939799
20
-0.280898801622
30
2.397793958
70
192
0
VERTEX
8
1
10
6.88272106534
20
-0.293030077122
30
0.775139627363
70
192
0
VERTEX
8
1
10
6.8824272104
20
-0.45309866721
30
2.40208451416
70
192
0
VERTEX
8
1
10
6.87739161503
20
-0.465223725411
30
0.780291146748
70
192
0
VERTEX
8
1
10
0
20
0
30
0
70
128
71
4
72
2
73
1
0
VERTEX
8
1
10
0
20
0
30
0
70
128
71
3
72
4
73
1
0
SEQEND
0
POLYLINE
8
0
39
0
100
AcDb3dPolyline
66
1
10
0
20
0
30
0
70
9
0
VERTEX
8
0
100
AcDb3dPolylineVertex
10
7.90935228123
20
-0.303646915076
30
0.768218979123
0
VERTEX
8
0
100
AcDb3dPolylineVertex
10
6.88272106534
20
-0.293030077122
30
0.775139627363
0
VERTEX
8
0
100
AcDb3dPolylineVertex
10
6.87739161503
20
-0.465223725411
30
0.780291146748
0
VERTEX
8
0
100
AcDb3dPolylineVertex
10
7.90613512435
20
-0.47586229296
30
0.773356292688
0
SEQEND
0
POLYLINE
8
1
70
64
66
1
10
0
20
0
30
0
71
4
72
2
0
VERTEX
8
1
10
7.90935228123
20
-0.303646915076
30
0.768218979123
70
192
0
VERTEX
8
1
10
7.90613512435
20
-0.47586229296
30
0.773356292688
70
192
0
VERTEX
8
1
10
6.88272106534
20
-0.293030077122
30
0.775139627363
70
192
0
VERTEX
8
1
10
6.87739161503
20
-0.465223725411
30
0.780291146748
70
192
0
VERTEX
8
1
10
0
20
0
30
0
70
128
71
2
72
1
73
4
0
VERTEX
8
1
10
0
20
0
30
0
70
128
71
4
72
1
73
3
0
SEQEND
0
POLYLINE
8
0
39
0
100
AcDb3dPolyline
66
1
10
0
20
0
30
0
70
9
0
VERTEX
8
0
100
AcDb3dPolylineVertex
10
7.91852475029
20
-0.297003136202
30
1.66563798819
0
VERTEX
8
0
100
AcDb3dPolylineVertex
10
7.90935228123
20
-0.303646915076
30
0.768218979123
0
VERTEX
8
0
100
AcDb3dPolylineVertex
10
7.90613512435
20
-0.47586229296
30
0.773356292688
0
VERTEX
8
0
100
AcDb3dPolylineVertex
10
7.91528321629
20
-0.469235430193
30
1.66844329546
0
SEQEND
0
POLYLINE
8
1
70
64
66
1
10
0
20
0
30
0
71
4
72
2
0
VERTEX
8
1
10
7.90613512435
20
-0.47586229296
30
0.773356292688
70
192
0
VERTEX
8
1
10
7.91528321629
20
-0.469235430193
30
1.66844329546
70
192
0
VERTEX
8
1
10
7.90935228123
20
-0.303646915076
30
0.768218979123
70
192
0
VERTEX
8
1
10
7.91852475029
20
-0.297003136202
30
1.66563798819
70
192
0
VERTEX
8
1
10
0
20
0
30
0
70
128
71
3
72
1
73
4
0
VERTEX
8
1
10
0
20
0
30
0
70
128
71
4
72
1
73
2
0
SEQEND
0
POLYLINE
8
0
39
0
100
AcDb3dPolyline
66
1
10
0
20
0
30
0
70
9
0
VERTEX
8
0
100
AcDb3dPolylineVertex
10
7.90613512435
20
-0.47586229296
30
0.773356292688
0
VERTEX
8
0
100
AcDb3dPolylineVertex
10
6.87739161503
20
-0.465223725411
30
0.780291146748
0
VERTEX
8
0
100
AcDb3dPolylineVertex
10
6.8824272104
20
-0.45309866721
30
2.40208451416
0
VERTEX
8
0
100
AcDb3dPolylineVertex
10
7.91528321629
20
-0.469235430193
30
1.66844329546
0
SEQEND
0
POLYLINE
8
1
70
64
66
1
10
0
20
0
30
0
71
4
72
2
0
VERTEX
8
1
10
6.87739161503
20
-0.465223725411
30
0.780291146748
70
192
0
VERTEX
8
1
10
6.8824272104
20
-0.45309866721
30
2.40208451416
70
192
0
VERTEX
8
1
10
7.90613512435
20
-0.47586229296
30
0.773356292688
70
192
0
VERTEX
8
1
10
7.91528321629
20
-0.469235430193
30
1.66844329546
70
192
0
VERTEX
8
1
10
0
20
0
30
0
70
128
71
3
72
1
73
4
0
VERTEX
8
1
10
0
20
0
30
0
70
128
71
4
72
1
73
2
0
SEQEND
0
POLYLINE
8
0
39
0
100
AcDb3dPolyline
66
1
10
0
20
0
30
0
70
9
0
VERTEX
8
0
100
AcDb3dPolylineVertex
10
5.56487058494
20
-0.279456577879
30
0.776807713575
0
VERTEX
8
0
100
AcDb3dPolylineVertex
10
5.57016373391
20
-0.26022058032
30
3.34605531742
0
VERTEX
8
0
100
AcDb3dPolylineVertex
10
5.56584522187
20
-0.455116546789
30
3.35009327344
0
VERTEX
8
0
100
AcDb3dPolylineVertex
10
5.56055907309
20
-0.474325946047
30
0.784332338189
0
SEQEND
0
POLYLINE
8
1
70
64
66
1
10
0
20
0
30
0
71
4
72
2
0
VERTEX
8
1
10
5.57016373391
20
-0.26022058032
30
3.34605531742
70
192
0
VERTEX
8
1
10
5.56487058494
20
-0.279456577879
30
0.776807713575
70
192
0
VERTEX
8
1
10
5.56584522187
20
-0.455116546789
30
3.35009327344
70
192
0
VERTEX
8
1
10
5.56055907309
20
-0.474325946047
30
0.784332338189
70
192
0
VERTEX
8
1
10
0
20
0
30
0
70
128
71
4
72
2
73
1
0
VERTEX
8
1
10
0
20
0
30
0
70
128
71
4
72
1
73
3
0
SEQEND
0
POLYLINE
8
0
39
0
100
AcDb3dPolyline
66
1
10
0
20
0
30
0
70
9
0
VERTEX
8
0
100
AcDb3dPolylineVertex
10
6.59930479554
20
-0.290148956667
30
0.770472397804
0
VERTEX
8
0
100
AcDb3dPolylineVertex
10
5.56487058494
20
-0.279456577879
30
0.776807713575
0
VERTEX
8
0
100
AcDb3dPolylineVertex
10
5.56055907309
20
-0.474325946047
30
0.784332338189
0
VERTEX
8
0
100
AcDb3dPolylineVertex
10
6.60496277698
20
-0.485121909071
30
0.777935947689
0
SEQEND
0
POLYLINE
8
1
70
64
66
1
10
0
20
0
30
0
71
4
72
2
0
VERTEX
8
1
10
6.59930479554
20
-0.290148956667
30
0.770472397804
70
192
0
VERTEX
8
1
10
6.60496277698
20
-0.485121909071
30
0.777935947689
70
192
0
VERTEX
8
1
10
5.56487058494
20
-0.279456577879
30
0.776807713575
70
192
0
VERTEX
8
1
10
5.56055907309
20
-0.474325946047
30
0.784332338189
70
192
0
VERTEX
8
1
10
0
20
0
30
0
70
128
71
2
72
1
73
4
0
VERTEX
8
1
10
0
20
0
30
0
70
128
71
4
72
1
73
3
0
SEQEND
0
POLYLINE
8
0
39
0
100
AcDb3dPolyline
66
1
10
0
20
0
30
0
70
9
0
VERTEX
8
0
100
AcDb3dPolylineVertex
10
6.61554392432
20
-0.276592400462
30
2.59834995644
0
VERTEX
8
0
100
AcDb3dPolylineVertex
10
6.59930479554
20
-0.290148956667
30
0.770472397804
0
VERTEX
8
0
100
AcDb3dPolylineVertex
10
6.60496277698
20
-0.485121909071
30
0.777935947689
0
VERTEX
8
0
100
AcDb3dPolylineVertex
10
6.6211081698
20
-0.471642375356
30
2.59531887934
0
SEQEND
0
POLYLINE
8
1
70
64
66
1
10
0
20
0
30
0
71
4
72
2
0
VERTEX
8
1
10
6.60496277698
20
-0.485121909071
30
0.777935947689
70
192
0
VERTEX
8
1
10
6.6211081698
20
-0.471642375356
30
2.59531887934
70
192
0
VERTEX
8
1
10
6.59930479554
20
-0.290148956667
30
0.770472397804
70
192
0
VERTEX
8
1
10
6.61554392432
20
-0.276592400462
30
2.59834995644
70
192
0
VERTEX
8
1
10
0
20
0
30
0
70
128
71
3
72
1
73
4
0
VERTEX
8
1
10
0
20
0
30
0
70
128
71
1
72
2
73
4
0
SEQEND
0
POLYLINE
8
0
39
0
100
AcDb3dPolyline
66
1
10
0
20
0
30
0
70
9
0
VERTEX
8
0
100
AcDb3dPolylineVertex
10
5.57016373391
20
-0.26022058032
30
3.34605531742
0
VERTEX
8
0
100
AcDb3dPolylineVertex
10
6.61554392432
20
-0.276592400462
30
2.59834995644
0
VERTEX
8
0
100
AcDb3dPolylineVertex
10
6.6211081698
20
-0.471642375356
30
2.59531887934
0
VERTEX
8
0
100
AcDb3dPolylineVertex
10
5.56584522187
20
-0.455116546789
30
3.35009327344
0
SEQEND
0
POLYLINE
8
1
70
64
66
1
10
0
20
0
30
0
71
4
72
2
0
VERTEX
8
1
10
5.56584522187
20
-0.455116546789
30
3.35009327344
70
192
0
VERTEX
8
1
10
5.57016373391
20
-0.26022058032
30
3.34605531742
70
192
0
VERTEX
8
1
10
6.6211081698
20
-0.471642375356
30
2.59531887934
70
192
0
VERTEX
8
1
10
6.61554392432
20
-0.276592400462
30
2.59834995644
70
192
0
VERTEX
8
1
10
0
20
0
30
0
70
128
71
4
72
3
73
1
0
VERTEX
8
1
10
0
20
0
30
0
70
128
71
2
72
4
73
1
0
SEQEND
0
POLYLINE
8
0
39
0
100
AcDb3dPolyline
66
1
10
0
20
0
30
0
70
9
0
VERTEX
8
0
100
AcDb3dPolylineVertex
10
6.6211081698
20
-0.471642375356
30
2.59531887934
0
VERTEX
8
0
100
AcDb3dPolylineVertex
10
6.60496277698
20
-0.485121909071
30
0.777935947689
0
VERTEX
8
0
100
AcDb3dPolylineVertex
10
5.56055907309
20
-0.474325946047
30
0.784332338189
0
VERTEX
8
0
100
AcDb3dPolylineVertex
10
5.56584522187
20
-0.455116546789
30
3.35009327344
0
SEQEND
0
POLYLINE
8
1
70
64
66
1
10
0
20
0
30
0
71
4
72
2
0
VERTEX
8
1
10
5.56055907309
20
-0.474325946047
30
0.784332338189
70
192
0
VERTEX
8
1
10
5.56584522187
20
-0.455116546789
30
3.35009327344
70
192
0
VERTEX
8
1
10
6.60496277698
20
-0.485121909071
30
0.777935947689
70
192
0
VERTEX
8
1
10
6.6211081698
20
-0.471642375356
30
2.59531887934
70
192
0
VERTEX
8
1
10
0
20
0
30
0
70
128
71
3
72
1
73
4
0
VERTEX
8
1
10
0
20
0
30
0
70
128
71
4
72
1
73
2
0
SEQEND
0
POLYLINE
8
0
39
0
100
AcDb3dPolyline
66
1
10
0
20
0
30
0
70
9
0
VERTEX
8
0
100
AcDb3dPolylineVertex
10
3.3941566668
20
-0.24172026045
30
2.63670674483
0
VERTEX
8
0
100
AcDb3dPolylineVertex
10
4.45563159833
20
-0.23893763815
30
3.3774010249
0
VERTEX
8
0
100
AcDb3dPolylineVertex
10
4.45624282146
20
-0.461122334151
30
3.37883367088
0
VERTEX
8
0
100
AcDb3dPolylineVertex
10
3.38700503687
20
-0.453798835226
30
2.6326767703
0
SEQEND
0
POLYLINE
8
1
70
64
66
1
10
0
20
0
30
0
71
4
72
2
0
VERTEX
8
1
10
3.38700503687
20
-0.453798835226
30
2.6326767703
70
192
0
VERTEX
8
1
10
3.3941566668
20
-0.24172026045
30
2.63670674483
70
192
0
VERTEX
8
1
10
4.45624282146
20
-0.461122334151
30
3.37883367088
70
192
0
VERTEX
8
1
10
4.45563159833
20
-0.23893763815
30
3.3774010249
70
192
0
VERTEX
8
1
10
0
20
0
30
0
70
128
71
4
72
3
73
2
0
VERTEX
8
1
10
0
20
0
30
0
70
128
71
3
72
1
73
2
0
SEQEND
0
POLYLINE
8
0
39
0
100
AcDb3dPolyline
66
1
10
0
20
0
30
0
70
9
0
VERTEX
8
0
100
AcDb3dPolylineVertex
10
3.38210380034
20
-0.252056889222
30
0.79017121986
0
VERTEX
8
0
100
AcDb3dPolylineVertex
10
3.3941566668
20
-0.24172026045
30
2.63670674483
0
VERTEX
8
0
100
AcDb3dPolylineVertex
10
3.38700503687
20
-0.453798835226
30
2.6326767703
0
VERTEX
8
0
100
AcDb3dPolylineVertex
10
3.37531635728
20
-0.455211873794
30
0.796293061763
0
SEQEND
0
POLYLINE
8
1
70
64
66
1
10
0
20
0
30
0
71
4
72
2
0
VERTEX
8
1
10
3.3941566668
20
-0.24172026045
30
2.63670674483
70
192
0
VERTEX
8
1
10
3.38210380034
20
-0.252056889222
30
0.79017121986
70
192
0
VERTEX
8
1
10
3.38700503687
20
-0.453798835226
30
2.6326767703
70
192
0
VERTEX
8
1
10
3.37531635728
20
-0.455211873794
30
0.796293061763
70
192
0
VERTEX
8
1
10
0
20
0
30
0
70
128
71
4
72
2
73
1
0
VERTEX
8
1
10
0
20
0
30
0
70
128
71
3
72
4
73
1
0
SEQEND
0
POLYLINE
8
0
39
0
100
AcDb3dPolyline
66
1
10
0
20
0
30
0
70
9
0
VERTEX
8
0
100
AcDb3dPolylineVertex
10
4.4160250926
20
-0.253399447551
30
0.788725152455
0
VERTEX
8
0
100
AcDb3dPolylineVertex
10
3.38210380034
20
-0.252056889222
30
0.79017121986
0
VERTEX
8
0
100
AcDb3dPolylineVertex
10
3.37531635728
20
-0.455211873794
30
0.796293061763
0
VERTEX
8
0
100
AcDb3dPolylineVertex
10
4.41667734911
20
-0.462939090817
30
0.795028407613
0
SEQEND
0
POLYLINE
8
1
70
64
66
1
10
0
20
0
30
0
71
4
72
2
0
VERTEX
8
1
10
4.4160250926
20
-0.253399447551
30
0.788725152455
70
192
0
VERTEX
8
1
10
4.41667734911
20
-0.462939090817
30
0.795028407613
70
192
0
VERTEX
8
1
10
3.38210380034
20
-0.252056889222
30
0.79017121986
70
192
0
VERTEX
8
1
10
3.37531635728
20
-0.455211873794
30
0.796293061763
70
192
0
VERTEX
8
1
10
0
20
0
30
0
70
128
71
4
72
2
73
3
0
VERTEX
8
1
10
0
20
0
30
0
70
128
71
2
72
1
73
3
0
SEQEND
0
POLYLINE
8
0
39
0
100
AcDb3dPolyline
66
1
10
0
20
0
30
0
70
9
0
VERTEX
8
0
100
AcDb3dPolylineVertex
10
4.45563159833
20
-0.23893763815
30
3.3774010249
0
VERTEX
8
0
100
AcDb3dPolylineVertex
10
4.4160250926
20
-0.253399447551
30
0.788725152455
0
VERTEX
8
0
100
AcDb3dPolylineVertex
10
4.41667734911
20
-0.462939090817
30
0.795028407613
0
VERTEX
8
0
100
AcDb3dPolylineVertex
10
4.45624282146
20
-0.461122334151
30
3.37883367088
0
SEQEND
0
POLYLINE
8
1
70
64
66
1
10
0
20
0
30
0
71
4
72
2
0
VERTEX
8
1
10
4.41667734911
20
-0.462939090817
30
0.795028407613
70
192
0
VERTEX
8
1
10
4.45624282146
20
-0.461122334151
30
3.37883367088
70
192
0
VERTEX
8
1
10
4.4160250926
20
-0.253399447551
30
0.788725152455
70
192
0
VERTEX
8
1
10
4.45563159833
20
-0.23893763815
30
3.3774010249
70
192
0
VERTEX
8
1
10
0
20
0
30
0
70
128
71
3
72
1
73
4
0
VERTEX
8
1
10
0
20
0
30
0
70
128
71
4
72
1
73
2
0
SEQEND
0
POLYLINE
8
0
39
0
100
AcDb3dPolyline
66
1
10
0
20
0
30
0
70
9
0
VERTEX
8
0
100
AcDb3dPolylineVertex
10
4.41667734911
20
-0.462939090817
30
0.795028407613
0
VERTEX
8
0
100
AcDb3dPolylineVertex
10
3.37531635728
20
-0.455211873794
30
0.796293061763
0
VERTEX
8
0
100
AcDb3dPolylineVertex
10
3.38700503687
20
-0.453798835226
30
2.6326767703
0
VERTEX
8
0
100
AcDb3dPolylineVertex
10
4.45624282146
20
-0.461122334151
30
3.37883367088
0
SEQEND
0
POLYLINE
8
1
70
64
66
1
10
0
20
0
30
0
71
4
72
2
0
VERTEX
8
1
10
3.37531635728
20
-0.455211873794
30
0.796293061763
70
192
0
VERTEX
8
1
10
3.38700503687
20
-0.453798835226
30
2.6326767703
70
192
0
VERTEX
8
1
10
4.41667734911
20
-0.462939090817
30
0.795028407613
70
192
0
VERTEX
8
1
10
4.45624282146
20
-0.461122334151
30
3.37883367088
70
192
0
VERTEX
8
1
10
0
20
0
30
0
70
128
71
3
72
2
73
4
0
VERTEX
8
1
10
0
20
0
30
0
70
128
71
3
72
1
73
2
0
SEQEND
0
POLYLINE
8
0
39
0
100
AcDb3dPolyline
66
1
10
0
20
0
30
0
70
9
0
VERTEX
8
0
100
AcDb3dPolylineVertex
10
2.06460332795
20
-0.250269320215
30
0.805759938442
0
VERTEX
8
0
100
AcDb3dPolylineVertex
10
2.07288106257
20
-0.245198557264
30
1.71216027834
0
VERTEX
8
0
100
AcDb3dPolylineVertex
10
2.06894679903
20
-0.434416166737
30
1.70196274589
0
VERTEX
8
0
100
AcDb3dPolylineVertex
10
2.06072532621
20
-0.443491927822
30
0.810817229913
0
SEQEND
0
POLYLINE
8
1
70
64
66
1
10
0
20
0
30
0
71
4
72
2
0
VERTEX
8
1
10
2.07288106257
20
-0.245198557264
30
1.71216027834
70
192
0
VERTEX
8
1
10
2.06460332795
20
-0.250269320215
30
0.805759938442
70
192
0
VERTEX
8
1
10
2.06894679903
20
-0.434416166737
30
1.70196274589
70
192
0
VERTEX
8
1
10
2.06072532621
20
-0.443491927822
30
0.810817229913
70
192
0
VERTEX
8
1
10
0
20
0
30
0
70
128
71
4
72
2
73
3
0
VERTEX
8
1
10
0
20
0
30
0
70
128
71
2
72
1
73
3
0
SEQEND
0
POLYLINE
8
0
39
0
100
AcDb3dPolyline
66
1
10
0
20
0
30
0
70
9
0
VERTEX
8
0
100
AcDb3dPolylineVertex
10
3.10408460193
20
-0.251659570379
30
0.797030372418
0
VERTEX
8
0
100
AcDb3dPolylineVertex
10
2.06460332795
20
-0.250269320215
30
0.805759938442
0
VERTEX
8
0
100
AcDb3dPolylineVertex
10
2.06072532621
20
-0.443491927822
30
0.810817229913
0
VERTEX
8
0
100
AcDb3dPolylineVertex
10
3.10350269012
20
-0.45682289292
30
0.802370368975
0
SEQEND
0
POLYLINE
8
1
70
64
66
1
10
0
20
0
30
0
71
4
72
2
0
VERTEX
8
1
10
3.10408460193
20
-0.251659570379
30
0.797030372418
70
192
0
VERTEX
8
1
10
3.10350269012
20
-0.45682289292
30
0.802370368975
70
192
0
VERTEX
8
1
10
2.06460332795
20
-0.250269320215
30
0.805759938442
70
192
0
VERTEX
8
1
10
2.06072532621
20
-0.443491927822
30
0.810817229913
70
192
0
VERTEX
8
1
10
0
20
0
30
0
70
128
71
2
72
1
73
4
0
VERTEX
8
1
10
0
20
0
30
0
70
128
71
4
72
1
73
3
0
SEQEND
0
POLYLINE
8
0
39
0
100
AcDb3dPolyline
66
1
10
0
20
0
30
0
70
9
0
VERTEX
8
0
100
AcDb3dPolylineVertex
10
3.12518014833
20
-0.242481184587
30
2.43909840286
0
VERTEX
8
0
100
AcDb3dPolylineVertex
10
3.10408460193
20
-0.251659570379
30
0.797030372418
0
VERTEX
8
0
100
AcDb3dPolylineVertex
10
3.10350269012
20
-0.45682289292
30
0.802370368975
0
VERTEX
8
0
100
AcDb3dPolylineVertex
10
3.12444615935
20
-0.440313572629
30
2.43077081169
0
SEQEND
0
POLYLINE
8
1
70
64
66
1
10
0
20
0
30
0
71
4
72
2
0
VERTEX
8
1
10
3.10350269012
20
-0.45682289292
30
0.802370368975
70
192
0
VERTEX
8
1
10
3.12444615935
20
-0.440313572629
30
2.43077081169
70
192
0
VERTEX
8
1
10
3.10408460193
20
-0.251659570379
30
0.797030372418
70
192
0
VERTEX
8
1
10
3.12518014833
20
-0.242481184587
30
2.43909840286
70
192
0
VERTEX
8
1
10
0
20
0
30
0
70
128
71
3
72
1
73
4
0
VERTEX
8
1
10
0
20
0
30
0
70
128
71
1
72
2
73
4
0
SEQEND
0
POLYLINE
8
0
39
0
100
AcDb3dPolyline
66
1
10
0
20
0
30
0
70
9
0
VERTEX
8
0
100
AcDb3dPolylineVertex
10
2.07288106257
20
-0.245198557264
30
1.71216027834
0
VERTEX
8
0
100
AcDb3dPolylineVertex
10
3.12518014833
20
-0.242481184587
30
2.43909840286
0
VERTEX
8
0
100
AcDb3dPolylineVertex
10
3.12444615935
20
-0.440313572629
30
2.43077081169
0
VERTEX
8
0
100
AcDb3dPolylineVertex
10
2.06894679903
20
-0.434416166737
30
1.70196274589
0
SEQEND
0
POLYLINE
8
1
70
64
66
1
10
0
20
0
30
0
71
4
72
2
0
VERTEX
8
1
10
2.06894679903
20
-0.434416166737
30
1.70196274589
70
192
0
VERTEX
8
1
10
2.07288106257
20
-0.245198557264
30
1.71216027834
70
192
0
VERTEX
8
1
10
3.12444615935
20
-0.440313572629
30
2.43077081169
70
192
0
VERTEX
8
1
10
3.12518014833
20
-0.242481184587
30
2.43909840286
70
192
0
VERTEX
8
1
10
0
20
0
30
0
70
128
71
4
72
3
73
2
0
VERTEX
8
1
10
0
20
0
30
0
70
128
71
3
72
1
73
2
0
SEQEND
0
POLYLINE
8
0
39
0
100
AcDb3dPolyline
66
1
10
0
20
0
30
0
70
9
0
VERTEX
8
0
100
AcDb3dPolylineVertex
10
3.12444615935
20
-0.440313572629
30
2.43077081169
0
VERTEX
8
0
100
AcDb3dPolylineVertex
10
3.10350269012
20
-0.45682289292
30
0.802370368975
0
VERTEX
8
0
100
AcDb3dPolylineVertex
10
2.06072532621
20
-0.443491927822
30
0.810817229913
0
VERTEX
8
0
100
AcDb3dPolylineVertex
10
2.06894679903
20
-0.434416166737
30
1.70196274589
0
SEQEND
0
POLYLINE
8
1
70
64
66
1
10
0
20
0
30
0
71
4
72
2
0
VERTEX
8
1
10
2.06072532621
20
-0.443491927822
30
0.810817229913
70
192
0
VERTEX
8
1
10
2.06894679903
20
-0.434416166737
30
1.70196274589
70
192
0
VERTEX
8
1
10
3.10350269012
20
-0.45682289292
30
0.802370368975
70
192
0
VERTEX
8
1
10
3.12444615935
20
-0.440313572629
30
2.43077081169
70
192
0
VERTEX
8
1
10
0
20
0
30
0
70
128
71
4
72
3
73
2
0
VERTEX
8
1
10
0
20
0
30
0
70
128
71
3
72
1
73
2
0
SEQEND
0
POLYLINE
8
0
39
0
100
AcDb3dPolyline
66
1
10
0
20
0
30
0
70
9
0
VERTEX
8
0
100
AcDb3dPolylineVertex
10
-1.31049059895
20
3.14388541124
30
1.68784606129
0
VERTEX
8
0
100
AcDb3dPolylineVertex
10
-1.31709466678
20
3.13713293434
30
0.802879920412
0
VERTEX
8
0
100
AcDb3dPolylineVertex
10
-1.51142415119
20
3.13246702782
30
0.810004191669
0
VERTEX
8
0
100
AcDb3dPolylineVertex
10
-1.50491981654
20
3.13911756435
30
1.68161304705
0
SEQEND
0
POLYLINE
8
1
70
64
66
1
10
0
20
0
30
0
71
4
72
2
0
VERTEX
8
1
10
-1.51142415119
20
3.13246702782
30
0.810004191669
70
192
0
VERTEX
8
1
10
-1.50491981654
20
3.13911756435
30
1.68161304705
70
192
0
VERTEX
8
1
10
-1.31709466678
20
3.13713293434
30
0.802879920412
70
192
0
VERTEX
8
1
10
-1.31049059895
20
3.14388541124
30
1.68784606129
70
192
0
VERTEX
8
1
10
0
20
0
30
0
70
128
71
4
72
3
73
2
0
VERTEX
8
1
10
0
20
0
30
0
70
128
71
3
72
1
73
2
0
SEQEND
0
POLYLINE
8
0
39
0
100
AcDb3dPolyline
66
1
10
0
20
0
30
0
70
9
0
VERTEX
8
0
100
AcDb3dPolylineVertex
10
-1.31542594063
20
4.19206338307
30
2.41838599975
0
VERTEX
8
0
100
AcDb3dPolylineVertex
10
-1.31049059895
20
3.14388541124
30
1.68784606129
0
VERTEX
8
0
100
AcDb3dPolylineVertex
10
-1.50491981654
20
3.13911756435
30
1.68161304705
0
VERTEX
8
0
100
AcDb3dPolylineVertex
10
-1.50989940102
20
4.19669224267
30
2.41870218659
0
SEQEND
0
POLYLINE
8
1
70
64
66
1
10
0
20
0
30
0
71
4
72
2
0
VERTEX
8
1
10
-1.50989940102
20
4.19669224267
30
2.41870218659
70
192
0
VERTEX
8
1
10
-1.31542594063
20
4.19206338307
30
2.41838599975
70
192
0
VERTEX
8
1
10
-1.50491981654
20
3.13911756435
30
1.68161304705
70
192
0
VERTEX
8
1
10
-1.31049059895
20
3.14388541124
30
1.68784606129
70
192
0
VERTEX
8
1
10
0
20
0
30
0
70
128
71
4
72
3
73
2
0
VERTEX
8
1
10
0
20
0
30
0
70
128
71
3
72
1
73
2
0
SEQEND
0
POLYLINE
8
0
39
0
100
AcDb3dPolyline
66
1
10
0
20
0
30
0
70
9
0
VERTEX
8
0
100
AcDb3dPolylineVertex
10
-1.50491981654
20
3.13911756435
30
1.68161304705
0
VERTEX
8
0
100
AcDb3dPolylineVertex
10
-1.51142415119
20
3.13246702782
30
0.810004191669
0
VERTEX
8
0
100
AcDb3dPolylineVertex
10
-1.52197627836
20
4.18502164179
30
0.801259546344
0
VERTEX
8
0
100
AcDb3dPolylineVertex
10
-1.50989940102
20
4.19669224267
30
2.41870218659
0
SEQEND
0
POLYLINE
8
1
70
64
66
1
10
0
20
0
30
0
71
4
72
2
0
VERTEX
8
1
10
-1.50989940102
20
4.19669224267
30
2.41870218659
70
192
0
VERTEX
8
1
10
-1.52197627836
20
4.18502164179
30
0.801259546344
70
192
0
VERTEX
8
1
10
-1.50491981654
20
3.13911756435
30
1.68161304705
70
192
0
VERTEX
8
1
10
-1.51142415119
20
3.13246702782
30
0.810004191669
70
192
0
VERTEX
8
1
10
0
20
0
30
0
70
128
71
4
72
2
73
3
0
VERTEX
8
1
10
0
20
0
30
0
70
128
71
3
72
2
73
1
0
SEQEND
0
POLYLINE
8
0
39
0
100
AcDb3dPolyline
66
1
10
0
20
0
30
0
70
9
0
VERTEX
8
0
100
AcDb3dPolylineVertex
10
-1.32195483688
20
5.55330040408
30
3.35126516301
0
VERTEX
8
0
100
AcDb3dPolylineVertex
10
-1.31689233749
20
4.48998742417
30
2.6175961232
0
VERTEX
8
0
100
AcDb3dPolylineVertex
10
-1.51380227825
20
4.48480405159
30
2.61740913243
0
VERTEX
8
0
100
AcDb3dPolylineVertex
10
-1.51888063479
20
5.55146911447
30
3.35339095144
0
SEQEND
0
POLYLINE
8
1
70
64
66
1
10
0
20
0
30
0
71
4
72
2
0
VERTEX
8
1
10
-1.51888063479
20
5.55146911447
30
3.35339095144
70
192
0
VERTEX
8
1
10
-1.32195483688
20
5.55330040408
30
3.35126516301
70
192
0
VERTEX
8
1
10
-1.51380227825
20
4.48480405159
30
2.61740913243
70
192
0
VERTEX
8
1
10
-1.31689233749
20
4.48998742417
30
2.6175961232
70
192
0
VERTEX
8
1
10
0
20
0
30
0
70
128
71
4
72
3
73
1
0
VERTEX
8
1
10
0
20
0
30
0
70
128
71
4
72
1
73
2
0
SEQEND
0
POLYLINE
8
0
39
0
100
AcDb3dPolyline
66
1
10
0
20
0
30
0
70
9
0
VERTEX
8
0
100
AcDb3dPolylineVertex
10
-1.34113136313
20
5.53183689407
30
0.779068244537
0
VERTEX
8
0
100
AcDb3dPolylineVertex
10
-1.32195483688
20
5.55330040408
30
3.35126516301
0
VERTEX
8
0
100
AcDb3dPolylineVertex
10
-1.51888063479
20
5.55146911447
30
3.35339095144
0
VERTEX
8
0
100
AcDb3dPolylineVertex
10
-1.53802964276
20
5.53003660374
30
0.784906611431
0
SEQEND
0
POLYLINE
8
1
70
64
66
1
10
0
20
0
30
0
71
4
72
2
0
VERTEX
8
1
10
-1.32195483688
20
5.55330040408
30
3.35126516301
70
192
0
VERTEX
8
1
10
-1.34113136313
20
5.53183689407
30
0.779068244537
70
192
0
VERTEX
8
1
10
-1.51888063479
20
5.55146911447
30
3.35339095144
70
192
0
VERTEX
8
1
10
-1.53802964276
20
5.53003660374
30
0.784906611431
70
192
0
VERTEX
8
1
10
0
20
0
30
0
70
128
71
4
72
2
73
1
0
VERTEX
8
1
10
0
20
0
30
0
70
128
71
4
72
1
73
3
0
SEQEND
0
POLYLINE
8
0
39
0
100
AcDb3dPolyline
66
1
10
0
20
0
30
0
70
9
0
VERTEX
8
0
100
AcDb3dPolylineVertex
10
-1.33052986963
20
4.47387860381
30
0.787245674799
0
VERTEX
8
0
100
AcDb3dPolylineVertex
10
-1.34113136313
20
5.53183689407
30
0.779068244537
0
VERTEX
8
0
100
AcDb3dPolylineVertex
10
-1.53802964276
20
5.53003660374
30
0.784906611431
0
VERTEX
8
0
100
AcDb3dPolylineVertex
10
-1.52739470613
20
4.46874847265
30
0.793109800451
0
SEQEND
0
POLYLINE
8
1
70
64
66
1
10
0
20
0
30
0
71
4
72
2
0
VERTEX
8
1
10
-1.34113136313
20
5.53183689407
30
0.779068244537
70
192
0
VERTEX
8
1
10
-1.53802964276
20
5.53003660374
30
0.784906611431
70
192
0
VERTEX
8
1
10
-1.33052986963
20
4.47387860381
30
0.787245674799
70
192
0
VERTEX
8
1
10
-1.52739470613
20
4.46874847265
30
0.793109800451
70
192
0
VERTEX
8
1
10
0
20
0
30
0
70
128
71
4
72
3
73
2
0
VERTEX
8
1
10
0
20
0
30
0
70
128
71
3
72
1
73
2
0
SEQEND
0
POLYLINE
8
0
39
0
100
AcDb3dPolyline
66
1
10
0
20
0
30
0
70
9
0
VERTEX
8
0
100
AcDb3dPolylineVertex
10
-1.31689233749
20
4.48998742417
30
2.6175961232
0
VERTEX
8
0
100
AcDb3dPolylineVertex
10
-1.33052986963
20
4.47387860381
30
0.787245674799
0
VERTEX
8
0
100
AcDb3dPolylineVertex
10
-1.52739470613
20
4.46874847265
30
0.793109800451
0
VERTEX
8
0
100
AcDb3dPolylineVertex
10
-1.51380227825
20
4.48480405159
30
2.61740913243
0
SEQEND
0
POLYLINE
8
1
70
64
66
1
10
0
20
0
30
0
71
4
72
2
0
VERTEX
8
1
10
-1.52739470613
20
4.46874847265
30
0.793109800451
70
192
0
VERTEX
8
1
10
-1.51380227825
20
4.48480405159
30
2.61740913243
70
192
0
VERTEX
8
1
10
-1.33052986963
20
4.47387860381
30
0.787245674799
70
192
0
VERTEX
8
1
10
-1.31689233749
20
4.48998742417
30
2.6175961232
70
192
0
VERTEX
8
1
10
0
20
0
30
0
70
128
71
3
72
1
73
4
0
VERTEX
8
1
10
0
20
0
30
0
70
128
71
4
72
1
73
2
0
SEQEND
0
POLYLINE
8
0
39
0
100
AcDb3dPolyline
66
1
10
0
20
0
30
0
70
9
0
VERTEX
8
0
100
AcDb3dPolylineVertex
10
-1.52739470613
20
4.46874847265
30
0.793109800451
0
VERTEX
8
0
100
AcDb3dPolylineVertex
10
-1.53802964276
20
5.53003660374
30
0.784906611431
0
VERTEX
8
0
100
AcDb3dPolylineVertex
10
-1.51888063479
20
5.55146911447
30
3.35339095144
0
VERTEX
8
0
100
AcDb3dPolylineVertex
10
-1.51380227825
20
4.48480405159
30
2.61740913243
0
SEQEND
0
POLYLINE
8
1
70
64
66
1
10
0
20
0
30
0
71
4
72
2
0
VERTEX
8
1
10
-1.51888063479
20
5.55146911447
30
3.35339095144
70
192
0
VERTEX
8
1
10
-1.53802964276
20
5.53003660374
30
0.784906611431
70
192
0
VERTEX
8
1
10
-1.51380227825
20
4.48480405159
30
2.61740913243
70
192
0
VERTEX
8
1
10
-1.52739470613
20
4.46874847265
30
0.793109800451
70
192
0
VERTEX
8
1
10
0
20
0
30
0
70
128
71
4
72
2
73
3
0
VERTEX
8
1
10
0
20
0
30
0
70
128
71
3
72
2
73
1
0
SEQEND
0
POLYLINE
8
0
39
0
100
AcDb3dPolyline
66
1
10
0
20
0
30
0
70
9
0
VERTEX
8
0
100
AcDb3dPolylineVertex
10
8.25977328261
20
3.72628932717
30
-0.0884573656803
0
VERTEX
8
0
100
AcDb3dPolylineVertex
10
11.0515765064
20
5.98329870092
30
-0.125511490781
0
VERTEX
8
0
100
AcDb3dPolylineVertex
10
11.0048960782
20
8.26017911487
30
-0.141495422433
0
VERTEX
8
0
100
AcDb3dPolylineVertex
10
8.90741582282
20
8.24503900449
30
-0.125711824004
0
VERTEX
8
0
100
AcDb3dPolylineVertex
10
8.87720444492
20
10.5136115854
30
-0.141759283629
0
VERTEX
8
0
100
AcDb3dPolylineVertex
10
7.74721111312
20
10.5021431305
30
-0.133232275506
0
VERTEX
8
0
100
AcDb3dPolylineVertex
10
7.76684478276
20
8.93821105631
30
-0.122160353282
0
VERTEX
8
0
100
AcDb3dPolylineVertex
10
6.3233713779
20
8.78421464238
30
-0.11026824403
0
VERTEX
8
0
100
AcDb3dPolylineVertex
10
6.09115443522
20
8.32444422044
30
-0.105234832167
0
VERTEX
8
0
100
AcDb3dPolylineVertex
10
5.9200407974
20
8.12773931717
30
-0.102545034356
0
VERTEX
8
0
100
AcDb3dPolylineVertex
10
5.28957724383
20
7.89817325247
30
-0.0961866010886
0
VERTEX
8
0
100
AcDb3dPolylineVertex
10
3.25704497295
20
7.89344167424
30
-0.0809630475612
0
VERTEX
8
0
100
AcDb3dPolylineVertex
10
3.27948086179
20
4.62894903521
30
-0.0577134627472
0
VERTEX
8
0
100
AcDb3dPolylineVertex
10
4.19667635383
20
3.73067636487
30
-0.0581242057238
0
SEQEND
0
POLYLINE
8
1
70
64
66
1
10
0
20
0
30
0
71
14
72
12
0
VERTEX
8
1
10
11.0048960782
20
8.26017911487
30
-0.141495422433
70
192
0
VERTEX
8
1
10
8.87720444492
20
10.5136115854
30
-0.141759283629
70
192
0
VERTEX
8
1
10
7.74721111312
20
10.5021431305
30
-0.133232275506
70
192
0
VERTEX
8
1
10
11.0515765064
20
5.98329870092
30
-0.125511490781
70
192
0
VERTEX
8
1
10
8.90741582282
20
8.24503900449
30
-0.125711824004
70
192
0
VERTEX
8
1
10
7.76684478276
20
8.93821105631
30
-0.122160353282
70
192
0
VERTEX
8
1
10
6.3233713779
20
8.78421464238
30
-0.11026824403
70
192
0
VERTEX
8
1
10
6.09115443522
20
8.32444422044
30
-0.105234832167
70
192
0
VERTEX
8
1
10
5.9200407974
20
8.12773931717
30
-0.102545034356
70
192
0
VERTEX
8
1
10
5.28957724383
20
7.89817325247
30
-0.0961866010886
70
192
0
VERTEX
8
1
10
8.25977328261
20
3.72628932717
30
-0.0884573656803
70
192
0
VERTEX
8
1
10
3.25704497295
20
7.89344167424
30
-0.0809630475612
70
192
0
VERTEX
8
1
10
4.19667635383
20
3.73067636487
30
-0.0581242057238
70
192
0
VERTEX
8
1
10
3.27948086179
20
4.62894903521
30
-0.0577134627472
70
192
0
VERTEX
8
1
10
0
20
0
30
0
70
128
71
10
72
13
73
11
0
VERTEX
8
1
10
0
20
0
30
0
70
128
71
14
72
13
73
10
0
VERTEX
8
1
10
0
20
0
30
0
70
128
71
12
72
14
73
10
0
VERTEX
8
1
10
0
20
0
30
0
70
128
71
10
72
11
73
9
0
VERTEX
8
1
10
0
20
0
30
0
70
128
71
9
72
11
73
5
0
VERTEX
8
1
10
0
20
0
30
0
70
128
71
8
72
9
73
5
0
VERTEX
8
1
10
0
20
0
30
0
70
128
71
8
72
5
73
6
0
VERTEX
8
1
10
0
20
0
30
0
70
128
71
8
72
6
73
7
0
VERTEX
8
1
10
0
20
0
30
0
70
128
71
6
72
5
73
2
0
VERTEX
8
1
10
0
20
0
30
0
70
128
71
3
72
6
73
2
0
VERTEX
8
1
10
0
20
0
30
0
70
128
71
5
72
11
73
4
0
VERTEX
8
1
10
0
20
0
30
0
70
128
71
5
72
4
73
1
0
SEQEND
0
POLYLINE
8
0
39
0
100
AcDb3dPolyline
66
1
10
0
20
0
30
0
70
9
0
VERTEX
8
0
100
AcDb3dPolylineVertex
10
8.04901764367
20
3.72651680956
30
-0.0868839201169
0
VERTEX
8
0
100
AcDb3dPolylineVertex
10
7.24761790742
20
3.72738220914
30
-0.0809010853206
0
VERTEX
8
0
100
AcDb3dPolylineVertex
10
7.23857939555
20
3.59787171955
30
-0.0799045487076
0
VERTEX
8
0
100
AcDb3dPolylineVertex
10
8.06380651491
20
3.59472251848
30
-0.0860491165076
0
SEQEND
0
POLYLINE
8
1
70
64
66
1
10
0
20
0
30
0
71
4
72
2
0
VERTEX
8
1
10
8.04901764367
20
3.72651680956
30
-0.0868839201169
70
192
0
VERTEX
8
1
10
8.06380651491
20
3.59472251848
30
-0.0860491165076
70
192
0
VERTEX
8
1
10
7.24761790742
20
3.72738220914
30
-0.0809010853206
70
192
0
VERTEX
8
1
10
7.23857939555
20
3.59787171955
30
-0.0799045487076
70
192
0
VERTEX
8
1
10
0
20
0
30
0
70
128
71
2
72
1
73
4
0
VERTEX
8
1
10
0
20
0
30
0
70
128
71
4
72
1
73
3
0
SEQEND
0
POLYLINE
8
0
39
0
100
AcDb3dPolyline
66
1
10
0
20
0
30
0
70
9
0
VERTEX
8
0
100
AcDb3dPolylineVertex
10
-1.35324630197
20
7.69361503482
30
2.59582081147
0
VERTEX
8
0
100
AcDb3dPolylineVertex
10
-1.33674502399
20
6.65459998677
30
3.32505912885
0
VERTEX
8
0
100
AcDb3dPolylineVertex
10
-1.53775628171
20
6.65415536065
30
3.32982620967
0
VERTEX
8
0
100
AcDb3dPolylineVertex
10
-1.56221502061
20
7.69186111387
30
2.60168367469
0
SEQEND
0
POLYLINE
8
1
70
64
66
1
10
0
20
0
30
0
71
4
72
2
0
VERTEX
8
1
10
-1.56221502061
20
7.69186111387
30
2.60168367469
70
192
0
VERTEX
8
1
10
-1.35324630197
20
7.69361503482
30
2.59582081147
70
192
0
VERTEX
8
1
10
-1.53775628171
20
6.65415536065
30
3.32982620967
70
192
0
VERTEX
8
1
10
-1.33674502399
20
6.65459998677
30
3.32505912885
70
192
0
VERTEX
8
1
10
0
20
0
30
0
70
128
71
4
72
3
73
2
0
VERTEX
8
1
10
0
20
0
30
0
70
128
71
3
72
1
73
2
0
SEQEND
0
POLYLINE
8
0
39
0
100
AcDb3dPolyline
66
1
10
0
20
0
30
0
70
9
0
VERTEX
8
0
100
AcDb3dPolylineVertex
10
-1.36521384915
20
7.68606208102
30
0.76438018386
0
VERTEX
8
0
100
AcDb3dPolylineVertex
10
-1.35324630197
20
7.69361503482
30
2.59582081147
0
VERTEX
8
0
100
AcDb3dPolylineVertex
10
-1.56221502061
20
7.69186111387
30
2.60168367469
0
VERTEX
8
0
100
AcDb3dPolylineVertex
10
-1.57300398466
20
7.6843237736
30
0.771602957598
0
SEQEND
0
POLYLINE
8
1
70
64
66
1
10
0
20
0
30
0
71
4
72
2
0
VERTEX
8
1
10
-1.35324630197
20
7.69361503482
30
2.59582081147
70
192
0
VERTEX
8
1
10
-1.36521384915
20
7.68606208102
30
0.76438018386
70
192
0
VERTEX
8
1
10
-1.56221502061
20
7.69186111387
30
2.60168367469
70
192
0
VERTEX
8
1
10
-1.57300398466
20
7.6843237736
30
0.771602957598
70
192
0
VERTEX
8
1
10
0
20
0
30
0
70
128
71
4
72
2
73
1
0
VERTEX
8
1
10
0
20
0
30
0
70
128
71
4
72
1
73
3
0
SEQEND
0
POLYLINE
8
0
39
0
100
AcDb3dPolyline
66
1
10
0
20
0
30
0
70
9
0
VERTEX
8
0
100
AcDb3dPolylineVertex
10
-1.35331842276
20
6.63547478945
30
0.7739338553
0
VERTEX
8
0
100
AcDb3dPolylineVertex
10
-1.36521384915
20
7.68606208102
30
0.76438018386
0
VERTEX
8
0
100
AcDb3dPolylineVertex
10
-1.57300398466
20
7.6843237736
30
0.771602957598
0
VERTEX
8
0
100
AcDb3dPolylineVertex
10
-1.55261656355
20
6.63505041109
30
0.780849692829
0
SEQEND
0
POLYLINE
8
1
70
64
66
1
10
0
20
0
30
0
71
4
72
2
0
VERTEX
8
1
10
-1.36521384915
20
7.68606208102
30
0.76438018386
70
192
0
VERTEX
8
1
10
-1.57300398466
20
7.6843237736
30
0.771602957598
70
192
0
VERTEX
8
1
10
-1.35331842276
20
6.63547478945
30
0.7739338553
70
192
0
VERTEX
8
1
10
-1.55261656355
20
6.63505041109
30
0.780849692829
70
192
0
VERTEX
8
1
10
0
20
0
30
0
70
128
71
4
72
3
73
1
0
VERTEX
8
1
10
0
20
0
30
0
70
128
71
2
72
4
73
1
0
SEQEND
0
POLYLINE
8
0
39
0
100
AcDb3dPolyline
66
1
10
0
20
0
30
0
70
9
0
VERTEX
8
0
100
AcDb3dPolylineVertex
10
-1.33674502399
20
6.65459998677
30
3.32505912885
0
VERTEX
8
0
100
AcDb3dPolylineVertex
10
-1.35331842276
20
6.63547478945
30
0.7739338553
0
VERTEX
8
0
100
AcDb3dPolylineVertex
10
-1.55261656355
20
6.63505041109
30
0.780849692829
0
VERTEX
8
0
100
AcDb3dPolylineVertex
10
-1.53775628171
20
6.65415536065
30
3.32982620967
0
SEQEND
0
POLYLINE
8
1
70
64
66
1
10
0
20
0
30
0
71
4
72
2
0
VERTEX
8
1
10
-1.55261656355
20
6.63505041109
30
0.780849692829
70
192
0
VERTEX
8
1
10
-1.53775628171
20
6.65415536065
30
3.32982620967
70
192
0
VERTEX
8
1
10
-1.35331842276
20
6.63547478945
30
0.7739338553
70
192
0
VERTEX
8
1
10
-1.33674502399
20
6.65459998677
30
3.32505912885
70
192
0
VERTEX
8
1
10
0
20
0
30
0
70
128
71
3
72
1
73
4
0
VERTEX
8
1
10
0
20
0
30
0
70
128
71
4
72
1
73
2
0
SEQEND
0
POLYLINE
8
0
39
0
100
AcDb3dPolyline
66
1
10
0
20
0
30
0
70
9
0
VERTEX
8
0
100
AcDb3dPolylineVertex
10
-1.55261656355
20
6.63505041109
30
0.780849692829
0
VERTEX
8
0
100
AcDb3dPolylineVertex
10
-1.57300398466
20
7.6843237736
30
0.771602957598
0
VERTEX
8
0
100
AcDb3dPolylineVertex
10
-1.56221502061
20
7.69186111387
30
2.60168367469
0
VERTEX
8
0
100
AcDb3dPolylineVertex
10
-1.53775628171
20
6.65415536065
30
3.32982620967
0
SEQEND
0
POLYLINE
8
1
70
64
66
1
10
0
20
0
30
0
71
4
72
2
0
VERTEX
8
1
10
-1.56221502061
20
7.69186111387
30
2.60168367469
70
192
0
VERTEX
8
1
10
-1.57300398466
20
7.6843237736
30
0.771602957598
70
192
0
VERTEX
8
1
10
-1.53775628171
20
6.65415536065
30
3.32982620967
70
192
0
VERTEX
8
1
10
-1.55261656355
20
6.63505041109
30
0.780849692829
70
192
0
VERTEX
8
1
10
0
20
0
30
0
70
128
71
4
72
2
73
1
0
VERTEX
8
1
10
0
20
0
30
0
70
128
71
4
72
1
73
3
0
SEQEND
0
POLYLINE
8
0
39
0
100
AcDb3dPolyline
66
1
10
0
20
0
30
0
70
9
0
VERTEX
8
0
100
AcDb3dPolylineVertex
10
-1.38024882933
20
9.01413686436
30
0.752658386474
0
VERTEX
8
0
100
AcDb3dPolylineVertex
10
-1.37445956811
20
9.01748646775
30
1.63809095316
0
VERTEX
8
0
100
AcDb3dPolylineVertex
10
-1.58610661772
20
9.01186499569
30
1.64618343375
0
VERTEX
8
0
100
AcDb3dPolylineVertex
10
-1.58619319752
20
9.00866558192
30
0.760118714458
0
SEQEND
0
POLYLINE
8
1
70
64
66
1
10
0
20
0
30
0
71
4
72
2
0
VERTEX
8
1
10
-1.37445956811
20
9.01748646775
30
1.63809095316
70
192
0
VERTEX
8
1
10
-1.38024882933
20
9.01413686436
30
0.752658386474
70
192
0
VERTEX
8
1
10
-1.58610661772
20
9.01186499569
30
1.64618343375
70
192
0
VERTEX
8
1
10
-1.58619319752
20
9.00866558192
30
0.760118714458
70
192
0
VERTEX
8
1
10
0
20
0
30
0
70
128
71
4
72
2
73
1
0
VERTEX
8
1
10
0
20
0
30
0
70
128
71
4
72
1
73
3
0
SEQEND
0
POLYLINE
8
0
39
0
100
AcDb3dPolyline
66
1
10
0
20
0
30
0
70
9
0
VERTEX
8
0
100
AcDb3dPolylineVertex
10
-1.3682771473
20
7.95710585033
30
0.762772277955
0
VERTEX
8
0
100
AcDb3dPolylineVertex
10
-1.38024882933
20
9.01413686436
30
0.752658386474
0
VERTEX
8
0
100
AcDb3dPolylineVertex
10
-1.58619319752
20
9.00866558192
30
0.760118714458
0
VERTEX
8
0
100
AcDb3dPolylineVertex
10
-1.56883160519
20
7.95756559993
30
0.769979602871
0
SEQEND
0
POLYLINE
8
1
70
64
66
1
10
0
20
0
30
0
71
4
72
2
0
VERTEX
8
1
10
-1.38024882933
20
9.01413686436
30
0.752658386474
70
192
0
VERTEX
8
1
10
-1.58619319752
20
9.00866558192
30
0.760118714458
70
192
0
VERTEX
8
1
10
-1.3682771473
20
7.95710585033
30
0.762772277955
70
192
0
VERTEX
8
1
10
-1.56883160519
20
7.95756559993
30
0.769979602871
70
192
0
VERTEX
8
1
10
0
20
0
30
0
70
128
71
4
72
3
73
2
0
VERTEX
8
1
10
0
20
0
30
0
70
128
71
3
72
1
73
2
0
SEQEND
0
POLYLINE
8
0
39
0
100
AcDb3dPolyline
66
1
10
0
20
0
30
0
70
9
0
VERTEX
8
0
100
AcDb3dPolylineVertex
10
-1.35780919393
20
7.97265154119
30
2.38002479075
0
VERTEX
8
0
100
AcDb3dPolylineVertex
10
-1.3682771473
20
7.95710585033
30
0.762772277955
0
VERTEX
8
0
100
AcDb3dPolylineVertex
10
-1.56883160519
20
7.95756559993
30
0.769979602871
0
VERTEX
8
0
100
AcDb3dPolylineVertex
10
-1.56883298234
20
7.97301042279
30
2.38385676924
0
SEQEND
0
POLYLINE
8
1
70
64
66
1
10
0
20
0
30
0
71
4
72
2
0
VERTEX
8
1
10
-1.56883160519
20
7.95756559993
30
0.769979602871
70
192
0
VERTEX
8
1
10
-1.56883298234
20
7.97301042279
30
2.38385676924
70
192
0
VERTEX
8
1
10
-1.3682771473
20
7.95710585033
30
0.762772277955
70
192
0
VERTEX
8
1
10
-1.35780919393
20
7.97265154119
30
2.38002479075
70
192
0
VERTEX
8
1
10
0
20
0
30
0
70
128
71
3
72
1
73
4
0
VERTEX
8
1
10
0
20
0
30
0
70
128
71
4
72
1
73
2
0
SEQEND
0
POLYLINE
8
0
39
0
100
AcDb3dPolyline
66
1
10
0
20
0
30
0
70
9
0
VERTEX
8
0
100
AcDb3dPolylineVertex
10
-1.37445956811
20
9.01748646775
30
1.63809095316
0
VERTEX
8
0
100
AcDb3dPolylineVertex
10
-1.35780919393
20
7.97265154119
30
2.38002479075
0
VERTEX
8
0
100
AcDb3dPolylineVertex
10
-1.56883298234
20
7.97301042279
30
2.38385676924
0
VERTEX
8
0
100
AcDb3dPolylineVertex
10
-1.58610661772
20
9.01186499569
30
1.64618343375
0
SEQEND
0
POLYLINE
8
1
70
64
66
1
10
0
20
0
30
0
71
4
72
2
0
VERTEX
8
1
10
-1.58610661772
20
9.01186499569
30
1.64618343375
70
192
0
VERTEX
8
1
10
-1.37445956811
20
9.01748646775
30
1.63809095316
70
192
0
VERTEX
8
1
10
-1.56883298234
20
7.97301042279
30
2.38385676924
70
192
0
VERTEX
8
1
10
-1.35780919393
20
7.97265154119
30
2.38002479075
70
192
0
VERTEX
8
1
10
0
20
0
30
0
70
128
71
4
72
3
73
1
0
VERTEX
8
1
10
0
20
0
30
0
70
128
71
4
72
1
73
2
0
SEQEND
0
POLYLINE
8
0
39
0
100
AcDb3dPolyline
66
1
10
0
20
0
30
0
70
9
0
VERTEX
8
0
100
AcDb3dPolylineVertex
10
-1.56883298234
20
7.97301042279
30
2.38385676924
0
VERTEX
8
0
100
AcDb3dPolylineVertex
10
-1.56883160519
20
7.95756559993
30
0.769979602871
0
VERTEX
8
0
100
AcDb3dPolylineVertex
10
-1.58619319752
20
9.00866558192
30
0.760118714458
0
VERTEX
8
0
100
AcDb3dPolylineVertex
10
-1.58610661772
20
9.01186499569
30
1.64618343375
0
SEQEND
0
POLYLINE
8
1
70
64
66
1
10
0
20
0
30
0
71
4
72
2
0
VERTEX
8
1
10
-1.58610661772
20
9.01186499569
30
1.64618343375
70
192
0
VERTEX
8
1
10
-1.58619319752
20
9.00866558192
30
0.760118714458
70
192
0
VERTEX
8
1
10
-1.56883298234
20
7.97301042279
30
2.38385676924
70
192
0
VERTEX
8
1
10
-1.56883160519
20
7.95756559993
30
0.769979602871
70
192
0
VERTEX
8
1
10
0
20
0
30
0
70
128
71
4
72
2
73
1
0
VERTEX
8
1
10
0
20
0
30
0
70
128
71
4
72
1
73
3
0
SEQEND
0
POLYLINE
8
0
39
0
100
AcDb3dPolyline
66
1
10
0
20
0
30
0
70
9
0
VERTEX
8
0
100
AcDb3dPolylineVertex
10
3.27397193261
20
7.72064466456
30
3.02926372541
0
VERTEX
8
0
100
AcDb3dPolylineVertex
10
3.27173211658
20
7.71725092147
30
2.58226229129
0
VERTEX
8
0
100
AcDb3dPolylineVertex
10
11.0349647456
20
7.67055345864
30
2.53992950942
0
VERTEX
8
0
100
AcDb3dPolylineVertex
10
11.0377899289
20
7.67381853272
30
2.97052202088
0
SEQEND
0
POLYLINE
8
1
70
64
66
1
10
0
20
0
30
0
71
4
72
2
0
VERTEX
8
1
10
11.0377899289
20
7.67381853272
30
2.97052202088
70
192
0
VERTEX
8
1
10
11.0349647456
20
7.67055345864
30
2.53992950942
70
192
0
VERTEX
8
1
10
3.27397193261
20
7.72064466456
30
3.02926372541
70
192
0
VERTEX
8
1
10
3.27173211658
20
7.71725092147
30
2.58226229129
70
192
0
VERTEX
8
1
10
0
20
0
30
0
70
128
71
4
72
2
73
3
0
VERTEX
8
1
10
0
20
0
30
0
70
128
71
2
72
1
73
3
0
SEQEND
0
POLYLINE
8
0
39
0
100
AcDb3dPolyline
66
1
10
0
20
0
30
0
70
9
0
VERTEX
8
0
100
AcDb3dPolylineVertex
10
10.6954345795
20
8.25794501219
30
-0.139166787904
0
VERTEX
8
0
100
AcDb3dPolylineVertex
10
10.7111254727
20
8.27353336088
30
1.85064980344
0
VERTEX
8
0
100
AcDb3dPolylineVertex
10
10.7049353356
20
8.42609702102
30
1.84824928347
0
VERTEX
8
0
100
AcDb3dPolylineVertex
10
10.7132126845
20
8.46896825609
30
-0.14399629687
0
SEQEND
0
POLYLINE
8
1
70
64
66
1
10
0
20
0
30
0
71
4
72
2
0
VERTEX
8
1
10
10.6954345795
20
8.25794501219
30
-0.139166787904
70
192
0
VERTEX
8
1
10
10.7111254727
20
8.27353336088
30
1.85064980344
70
192
0
VERTEX
8
1
10
10.7132126845
20
8.46896825609
30
-0.14399629687
70
192
0
VERTEX
8
1
10
10.7049353356
20
8.42609702102
30
1.84824928347
70
192
0
VERTEX
8
1
10
0
20
0
30
0
70
128
71
3
72
1
73
4
0
VERTEX
8
1
10
0
20
0
30
0
70
128
71
4
72
1
73
2
0
SEQEND
0
POLYLINE
8
0
39
0
100
AcDb3dPolyline
66
1
10
0
20
0
30
0
70
9
0
VERTEX
8
0
100
AcDb3dPolylineVertex
10
8.87720444492
20
10.5136115854
30
-0.141759283629
0
VERTEX
8
0
100
AcDb3dPolylineVertex
10
8.90741582282
20
8.24503900449
30
-0.125711824004
0
VERTEX
8
0
100
AcDb3dPolylineVertex
10
8.90660744708
20
8.26597453597
30
2.56719195312
0
VERTEX
8
0
100
AcDb3dPolylineVertex
10
8.87688238581
20
10.5214152497
30
0.965969454306
0
SEQEND
0
POLYLINE
8
1
70
64
66
1
10
0
20
0
30
0
71
4
72
2
0
VERTEX
8
1
10
8.90741582282
20
8.24503900449
30
-0.125711824004
70
192
0
VERTEX
8
1
10
8.90660744708
20
8.26597453597
30
2.56719195312
70
192
0
VERTEX
8
1
10
8.87720444492
20
10.5136115854
30
-0.141759283629
70
192
0
VERTEX
8
1
10
8.87688238581
20
10.5214152497
30
0.965969454306
70
192
0
VERTEX
8
1
10
0
20
0
30
0
70
128
71
3
72
1
73
4
0
VERTEX
8
1
10
0
20
0
30
0
70
128
71
4
72
1
73
2
0
SEQEND
0
POLYLINE
8
0
39
0
100
AcDb3dPolyline
66
1
10
0
20
0
30
0
70
9
0
VERTEX
8
0
100
AcDb3dPolylineVertex
10
7.74721111312
20
10.5021431305
30
-0.133232275506
0
VERTEX
8
0
100
AcDb3dPolylineVertex
10
8.87720444492
20
10.5136115854
30
-0.141759283629
0
VERTEX
8
0
100
AcDb3dPolylineVertex
10
8.87688238581
20
10.5214152497
30
0.965969454306
0
VERTEX
8
0
100
AcDb3dPolylineVertex
10
7.49552924022
20
10.5074683707
30
0.986693064657
0
VERTEX
8
0
100
AcDb3dPolylineVertex
10
7.49431041967
20
10.5058376338
30
0.757087107034
0
VERTEX
8
0
100
AcDb3dPolylineVertex
10
7.7604386147
20
10.5084986327
30
0.749366855266
0
SEQEND
0
POLYLINE
8
1
70
64
66
1
10
0
20
0
30
0
71
6
72
4
0
VERTEX
8
1
10
8.87688238581
20
10.5214152497
30
0.965969454306
70
192
0
VERTEX
8
1
10
8.87720444492
20
10.5136115854
30
-0.141759283629
70
192
0
VERTEX
8
1
10
7.7604386147
20
10.5084986327
30
0.749366855266
70
192
0
VERTEX
8
1
10
7.74721111312
20
10.5021431305
30
-0.133232275506
70
192
0
VERTEX
8
1
10
7.49431041967
20
10.5058376338
30
0.757087107034
70
192
0
VERTEX
8
1
10
7.49552924022
20
10.5074683707
30
0.986693064657
70
192
0
VERTEX
8
1
10
0
20
0
30
0
70
128
71
4
72
2
73
3
0
VERTEX
8
1
10
0
20
0
30
0
70
128
71
3
72
2
73
1
0
VERTEX
8
1
10
0
20
0
30
0
70
128
71
6
72
3
73
1
0
VERTEX
8
1
10
0
20
0
30
0
70
128
71
6
72
5
73
3
0
SEQEND
0
POLYLINE
8
0
39
0
100
AcDb3dPolyline
66
1
10
0
20
0
30
0
70
9
0
VERTEX
8
0
100
AcDb3dPolylineVertex
10
7.76684478276
20
8.93821105631
30
-0.122160353282
0
VERTEX
8
0
100
AcDb3dPolylineVertex
10
7.74721111312
20
10.5021431305
30
-0.133232275506
0
VERTEX
8
0
100
AcDb3dPolylineVertex
10
7.7604386147
20
10.5084986327
30
0.749366855266
0
VERTEX
8
0
100
AcDb3dPolylineVertex
10
7.78000982737
20
8.94810157776
30
0.759227442737
0
SEQEND
0
POLYLINE
8
1
70
64
66
1
10
0
20
0
30
0
71
4
72
2
0
VERTEX
8
1
10
7.7604386147
20
10.5084986327
30
0.749366855266
70
192
0
VERTEX
8
1
10
7.74721111312
20
10.5021431305
30
-0.133232275506
70
192
0
VERTEX
8
1
10
7.78000982737
20
8.94810157776
30
0.759227442737
70
192
0
VERTEX
8
1
10
7.76684478276
20
8.93821105631
30
-0.122160353282
70
192
0
VERTEX
8
1
10
0
20
0
30
0
70
128
71
4
72
2
73
1
0
VERTEX
8
1
10
0
20
0
30
0
70
128
71
4
72
1
73
3
0
SEQEND
0
POLYLINE
8
0
39
0
100
AcDb3dPolyline
66
1
10
0
20
0
30
0
70
9
0
VERTEX
8
0
100
AcDb3dPolylineVertex
10
8.27391442048
20
3.75203662657
30
2.58375873269
0
VERTEX
8
0
100
AcDb3dPolylineVertex
10
9.01770045138
20
4.35334885582
30
2.5747994238
0
VERTEX
8
0
100
AcDb3dPolylineVertex
10
9.0241143854
20
4.36088208479
30
3.01293354821
0
VERTEX
8
0
100
AcDb3dPolylineVertex
10
10.5301432553
20
5.58299468165
30
3.84746570015
0
VERTEX
8
0
100
AcDb3dPolylineVertex
10
11.0773526304
20
6.02538335673
30
3.84057761888
0
VERTEX
8
0
100
AcDb3dPolylineVertex
10
11.0515765064
20
5.98329870092
30
-0.125511490781
0
VERTEX
8
0
100
AcDb3dPolylineVertex
10
10.6202496609
20
5.63459611727
30
-0.119786774573
0
VERTEX
8
0
100
AcDb3dPolylineVertex
10
10.6293456624
20
5.65251107687
30
1.85177578935
0
VERTEX
8
0
100
AcDb3dPolylineVertex
10
10.0028011015
20
5.14597117387
30
1.85716803563
0
VERTEX
8
0
100
AcDb3dPolylineVertex
10
9.99603764829
20
5.12995722855
30
-0.111501880289
0
VERTEX
8
0
100
AcDb3dPolylineVertex
10
8.25977328261
20
3.72628932717
30
-0.0884573656803
0
SEQEND
0
POLYLINE
8
1
70
64
66
1
10
0
20
0
30
0
71
11
72
9
0
VERTEX
8
1
10
8.25977328261
20
3.72628932717
30
-0.0884573656803
70
192
0
VERTEX
8
1
10
8.27391442048
20
3.75203662657
30
2.58375873269
70
192
0
VERTEX
8
1
10
9.01770045138
20
4.35334885582
30
2.5747994238
70
192
0
VERTEX
8
1
10
9.0241143854
20
4.36088208479
30
3.01293354821
70
192
0
VERTEX
8
1
10
9.99603764829
20
5.12995722855
30
-0.111501880289
70
192
0
VERTEX
8
1
10
10.0028011015
20
5.14597117387
30
1.85716803563
70
192
0
VERTEX
8
1
10
10.6202496609
20
5.63459611727
30
-0.119786774573
70
192
0
VERTEX
8
1
10
10.5301432553
20
5.58299468165
30
3.84746570015
70
192
0
VERTEX
8
1
10
10.6293456624
20
5.65251107687
30
1.85177578935
70
192
0
VERTEX
8
1
10
11.0515765064
20
5.98329870092
30
-0.125511490781
70
192
0
VERTEX
8
1
10
11.0773526304
20
6.02538335673
30
3.84057761888
70
192
0
VERTEX
8
1
10
0
20
0
30
0
70
128
71
10
72
9
73
11
0
VERTEX
8
1
10
0
20
0
30
0
70
128
71
10
72
7
73
9
0
VERTEX
8
1
10
0
20
0
30
0
70
128
71
11
72
9
73
8
0
VERTEX
8
1
10
0
20
0
30
0
70
128
71
9
72
6
73
8
0
VERTEX
8
1
10
0
20
0
30
0
70
128
71
8
72
6
73
4
0
VERTEX
8
1
10
0
20
0
30
0
70
128
71
6
72
3
73
4
0
VERTEX
8
1
10
0
20
0
30
0
70
128
71
3
72
6
73
1
0
VERTEX
8
1
10
0
20
0
30
0
70
128
71
3
72
1
73
2
0
VERTEX
8
1
10
0
20
0
30
0
70
128
71
6
72
5
73
1
0
SEQEND
0
POLYLINE
8
0
39
0
100
AcDb3dPolyline
66
1
10
0
20
0
30
0
70
9
0
VERTEX
8
0
100
AcDb3dPolylineVertex
10
6.09115443522
20
8.32444422044
30
-0.105234832167
0
VERTEX
8
0
100
AcDb3dPolylineVertex
10
6.3233713779
20
8.78421464238
30
-0.11026824403
0
VERTEX
8
0
100
AcDb3dPolylineVertex
10
6.3378847936
20
8.80469152952
30
2.20703467787
0
VERTEX
8
0
100
AcDb3dPolylineVertex
10
6.10877283237
20
8.34992748871
30
2.5322464191
0
SEQEND
0
POLYLINE
8
1
70
64
66
1
10
0
20
0
30
0
71
4
72
2
0
VERTEX
8
1
10
6.3378847936
20
8.80469152952
30
2.20703467787
70
192
0
VERTEX
8
1
10
6.3233713779
20
8.78421464238
30
-0.11026824403
70
192
0
VERTEX
8
1
10
6.10877283237
20
8.34992748871
30
2.5322464191
70
192
0
VERTEX
8
1
10
6.09115443522
20
8.32444422044
30
-0.105234832167
70
192
0
VERTEX
8
1
10
0
20
0
30
0
70
128
71
4
72
2
73
1
0
VERTEX
8
1
10
0
20
0
30
0
70
128
71
4
72
1
73
3
0
SEQEND
0
POLYLINE
8
0
39
0
100
AcDb3dPolyline
66
1
10
0
20
0
30
0
70
9
0
VERTEX
8
0
100
AcDb3dPolylineVertex
10
5.9200407974
20
8.12773931717
30
-0.102545034356
0
VERTEX
8
0
100
AcDb3dPolylineVertex
10
6.09115443522
20
8.32444422044
30
-0.105234832167
0
VERTEX
8
0
100
AcDb3dPolylineVertex
10
6.10877283237
20
8.34992748871
30
2.5322464191
0
VERTEX
8
0
100
AcDb3dPolylineVertex
10
5.87942740824
20
8.08664974415
30
2.72137651994
0
SEQEND
0
POLYLINE
8
1
70
64
66
1
10
0
20
0
30
0
71
4
72
2
0
VERTEX
8
1
10
6.10877283237
20
8.34992748871
30
2.5322464191
70
192
0
VERTEX
8
1
10
6.09115443522
20
8.32444422044
30
-0.105234832167
70
192
0
VERTEX
8
1
10
5.87942740824
20
8.08664974415
30
2.72137651994
70
192
0
VERTEX
8
1
10
5.9200407974
20
8.12773931717
30
-0.102545034356
70
192
0
VERTEX
8
1
10
0
20
0
30
0
70
128
71
4
72
2
73
1
0
VERTEX
8
1
10
0
20
0
30
0
70
128
71
4
72
1
73
3
0
SEQEND
0
POLYLINE
8
0
39
0
100
AcDb3dPolyline
66
1
10
0
20
0
30
0
70
9
0
VERTEX
8
0
100
AcDb3dPolylineVertex
10
11.0313916545
20
7.84521139803
30
2.53984807856
0
VERTEX
8
0
100
AcDb3dPolylineVertex
10
11.0349647456
20
7.67055345864
30
2.53992950942
0
VERTEX
8
0
100
AcDb3dPolylineVertex
10
7.68625891366
20
7.69067731983
30
2.55564883158
0
VERTEX
8
0
100
AcDb3dPolylineVertex
10
7.68777915659
20
7.86603461479
30
2.55554303979
0
SEQEND
0
POLYLINE
8
1
70
64
66
1
10
0
20
0
30
0
71
4
72
2
0
VERTEX
8
1
10
7.68625891366
20
7.69067731983
30
2.55564883158
70
192
0
VERTEX
8
1
10
7.68777915659
20
7.86603461479
30
2.55554303979
70
192
0
VERTEX
8
1
10
11.0349647456
20
7.67055345864
30
2.53992950942
70
192
0
VERTEX
8
1
10
11.0313916545
20
7.84521139803
30
2.53984807856
70
192
0
VERTEX
8
1
10
0
20
0
30
0
70
128
71
4
72
3
73
2
0
VERTEX
8
1
10
0
20
0
30
0
70
128
71
3
72
1
73
2
0
SEQEND
0
POLYLINE
8
0
39
0
100
AcDb3dPolyline
66
1
10
0
20
0
30
0
70
9
0
VERTEX
8
0
100
AcDb3dPolylineVertex
10
3.25704497295
20
7.89344167424
30
-0.0809630475612
0
VERTEX
8
0
100
AcDb3dPolylineVertex
10
5.28957724383
20
7.89817325247
30
-0.0961866010886
0
VERTEX
8
0
100
AcDb3dPolylineVertex
10
5.41708736694
20
7.9196622865
30
2.57992021874
0
VERTEX
8
0
100
AcDb3dPolylineVertex
10
3.27044992391
20
7.91466171501
30
2.59555892279
0
SEQEND
0
POLYLINE
8
1
70
64
66
1
10
0
20
0
30
0
71
4
72
2
0
VERTEX
8
1
10
5.41708736694
20
7.9196622865
30
2.57992021874
70
192
0
VERTEX
8
1
10
5.28957724383
20
7.89817325247
30
-0.0961866010886
70
192
0
VERTEX
8
1
10
3.27044992391
20
7.91466171501
30
2.59555892279
70
192
0
VERTEX
8
1
10
3.25704497295
20
7.89344167424
30
-0.0809630475612
70
192
0
VERTEX
8
1
10
0
20
0
30
0
70
128
71
4
72
2
73
3
0
VERTEX
8
1
10
0
20
0
30
0
70
128
71
2
72
1
73
3
0
SEQEND
0
POLYLINE
8
0
39
0
100
AcDb3dPolyline
66
1
10
0
20
0
30
0
70
9
0
VERTEX
8
0
100
AcDb3dPolylineVertex
10
3.2959904699
20
4.64770914436
30
3.22878295272
0
VERTEX
8
0
100
AcDb3dPolylineVertex
10
3.55007494528
20
4.39702913561
30
3.05575330389
0
VERTEX
8
0
100
AcDb3dPolylineVertex
10
3.55309642098
20
4.38937835072
30
2.61432199182
0
VERTEX
8
0
100
AcDb3dPolylineVertex
10
4.19937279356
20
3.75642842963
30
2.61336048011
0
VERTEX
8
0
100
AcDb3dPolylineVertex
10
4.19667635383
20
3.73067636487
30
-0.0581242057238
0
VERTEX
8
0
100
AcDb3dPolylineVertex
10
4.12269071555
20
3.80313570606
30
-0.0580910973209
0
VERTEX
8
0
100
AcDb3dPolylineVertex
10
4.13238832107
20
3.81446099814
30
1.90116654982
0
VERTEX
8
0
100
AcDb3dPolylineVertex
10
3.5582292298
20
4.3768367852
30
1.9072605116
0
VERTEX
8
0
100
AcDb3dPolylineVertex
10
3.55265239477
20
4.36141324778
30
-0.0578357787865
0
VERTEX
8
0
100
AcDb3dPolylineVertex
10
3.27948086179
20
4.62894903521
30
-0.0577134627472
0
SEQEND
0
POLYLINE
8
1
70
64
66
1
10
0
20
0
30
0
71
10
72
8
0
VERTEX
8
1
10
3.27948086179
20
4.62894903521
30
-0.0577134627472
70
192
0
VERTEX
8
1
10
3.2959904699
20
4.64770914436
30
3.22878295272
70
192
0
VERTEX
8
1
10
3.55007494528
20
4.39702913561
30
3.05575330389
70
192
0
VERTEX
8
1
10
3.55309642098
20
4.38937835072
30
2.61432199182
70
192
0
VERTEX
8
1
10
3.55265239477
20
4.36141324778
30
-0.0578357787865
70
192
0
VERTEX
8
1
10
3.5582292298
20
4.3768367852
30
1.9072605116
70
192
0
VERTEX
8
1
10
4.12269071555
20
3.80313570606
30
-0.0580910973209
70
192
0
VERTEX
8
1
10
4.13238832107
20
3.81446099814
30
1.90116654982
70
192
0
VERTEX
8
1
10
4.19937279356
20
3.75642842963
30
2.61336048011
70
192
0
VERTEX
8
1
10
4.19667635383
20
3.73067636487
30
-0.0581242057238
70
192
0
VERTEX
8
1
10
0
20
0
30
0
70
128
71
10
72
8
73
9
0
VERTEX
8
1
10
0
20
0
30
0
70
128
71
10
72
7
73
8
0
VERTEX
8
1
10
0
20
0
30
0
70
128
71
9
72
8
73
4
0
VERTEX
8
1
10
0
20
0
30
0
70
128
71
4
72
8
73
6
0
VERTEX
8
1
10
0
20
0
30
0
70
128
71
2
72
4
73
6
0
VERTEX
8
1
10
0
20
0
30
0
70
128
71
3
72
4
73
2
0
VERTEX
8
1
10
0
20
0
30
0
70
128
71
1
72
2
73
6
0
VERTEX
8
1
10
0
20
0
30
0
70
128
71
6
72
5
73
1
0
SEQEND
0
POLYLINE
8
0
39
0
100
AcDb3dPolyline
66
1
10
0
20
0
30
0
70
9
0
VERTEX
8
0
100
AcDb3dPolylineVertex
10
5.28957724383
20
7.89817325247
30
-0.0961866010886
0
VERTEX
8
0
100
AcDb3dPolylineVertex
10
5.9200407974
20
8.12773931717
30
-0.102545034356
0
VERTEX
8
0
100
AcDb3dPolylineVertex
10
5.87942740824
20
8.08664974415
30
2.72137651994
0
VERTEX
8
0
100
AcDb3dPolylineVertex
10
5.41708736694
20
7.9196622865
30
2.57992021874
0
SEQEND
0
POLYLINE
8
1
70
64
66
1
10
0
20
0
30
0
71
4
72
2
0
VERTEX
8
1
10
5.87942740824
20
8.08664974415
30
2.72137651994
70
192
0
VERTEX
8
1
10
5.9200407974
20
8.12773931717
30
-0.102545034356
70
192
0
VERTEX
8
1
10
5.41708736694
20
7.9196622865
30
2.57992021874
70
192
0
VERTEX
8
1
10
5.28957724383
20
7.89817325247
30
-0.0961866010886
70
192
0
VERTEX
8
1
10
0
20
0
30
0
70
128
71
4
72
2
73
3
0
VERTEX
8
1
10
0
20
0
30
0
70
128
71
3
72
2
73
1
0
SEQEND
0
POLYLINE
8
0
39
0
100
AcDb3dPolyline
66
1
10
0
20
0
30
0
70
9
0
VERTEX
8
0
100
AcDb3dPolylineVertex
10
3.28063337105
20
5.94196227739
30
1.94310634316
0
VERTEX
8
0
100
AcDb3dPolylineVertex
10
3.28620232339
20
5.13222244096
30
1.9496206808
0
VERTEX
8
0
100
AcDb3dPolylineVertex
10
3.16140993905
20
5.13136939011
30
1.95025246704
0
VERTEX
8
0
100
AcDb3dPolylineVertex
10
3.15399748748
20
5.94109648504
30
1.9437474602
0
SEQEND
0
POLYLINE
8
1
70
64
66
1
10
0
20
0
30
0
71
4
72
2
0
VERTEX
8
1
10
3.16140993905
20
5.13136939011
30
1.95025246704
70
192
0
VERTEX
8
1
10
3.28620232339
20
5.13222244096
30
1.9496206808
70
192
0
VERTEX
8
1
10
3.15399748748
20
5.94109648504
30
1.9437474602
70
192
0
VERTEX
8
1
10
3.28063337105
20
5.94196227739
30
1.94310634316
70
192
0
VERTEX
8
1
10
0
20
0
30
0
70
128
71
2
72
1
73
4
0
VERTEX
8
1
10
0
20
0
30
0
70
128
71
4
72
1
73
3
0
SEQEND
0
POLYLINE
8
0
39
0
100
AcDb3dPolyline
66
1
10
0
20
0
30
0
70
9
0
VERTEX
8
0
100
AcDb3dPolylineVertex
10
3.2705522966
20
5.92807983336
30
-0.0669658188816
0
VERTEX
8
0
100
AcDb3dPolylineVertex
10
3.28063337105
20
5.94196227739
30
1.94310634316
0
VERTEX
8
0
100
AcDb3dPolylineVertex
10
3.15399748748
20
5.94109648504
30
1.9437474602
0
VERTEX
8
0
100
AcDb3dPolylineVertex
10
3.14243151453
20
5.94235474046
30
-0.0661106931358
0
SEQEND
0
POLYLINE
8
1
70
64
66
1
10
0
20
0
30
0
71
4
72
2
0
VERTEX
8
1
10
3.28063337105
20
5.94196227739
30
1.94310634316
70
192
0
VERTEX
8
1
10
3.2705522966
20
5.92807983336
30
-0.0669658188816
70
192
0
VERTEX
8
1
10
3.15399748748
20
5.94109648504
30
1.9437474602
70
192
0
VERTEX
8
1
10
3.14243151453
20
5.94235474046
30
-0.0661106931358
70
192
0
VERTEX
8
1
10
0
20
0
30
0
70
128
71
4
72
2
73
1
0
VERTEX
8
1
10
0
20
0
30
0
70
128
71
4
72
1
73
3
0
SEQEND
0
POLYLINE
8
0
39
0
100
AcDb3dPolyline
66
1
10
0
20
0
30
0
70
9
0
VERTEX
8
0
100
AcDb3dPolylineVertex
10
3.27173211658
20
7.71725092147
30
2.58226229129
0
VERTEX
8
0
100
AcDb3dPolylineVertex
10
3.27044992391
20
7.91466171501
30
2.59555892279
0
VERTEX
8
0
100
AcDb3dPolylineVertex
10
7.50362547626
20
7.86718678787
30
2.55830057402
0
VERTEX
8
0
100
AcDb3dPolylineVertex
10
7.50186711035
20
7.69180835872
30
2.55952804112
0
SEQEND
0
POLYLINE
8
1
70
64
66
1
10
0
20
0
30
0
71
4
72
2
0
VERTEX
8
1
10
3.27044992391
20
7.91466171501
30
2.59555892279
70
192
0
VERTEX
8
1
10
3.27173211658
20
7.71725092147
30
2.58226229129
70
192
0
VERTEX
8
1
10
7.50362547626
20
7.86718678787
30
2.55830057402
70
192
0
VERTEX
8
1
10
7.50186711035
20
7.69180835872
30
2.55952804112
70
192
0
VERTEX
8
1
10
0
20
0
30
0
70
128
71
4
72
2
73
3
0
VERTEX
8
1
10
0
20
0
30
0
70
128
71
2
72
1
73
3
0
SEQEND
0
POLYLINE
8
0
39
0
100
AcDb3dPolyline
66
1
10
0
20
0
30
0
70
9
0
VERTEX
8
0
100
AcDb3dPolylineVertex
10
5.31021846403
20
7.88085065289
30
2.570085426
0
VERTEX
8
0
100
AcDb3dPolylineVertex
10
5.32008343729
20
7.88162919091
30
2.87202030029
0
VERTEX
8
0
100
AcDb3dPolylineVertex
10
11.033436129
20
7.84605285709
30
2.8468289353
0
VERTEX
8
0
100
AcDb3dPolylineVertex
10
11.0313916545
20
7.84521139803
30
2.53984807856
0
SEQEND
0
POLYLINE
8
1
70
64
66
1
10
0
20
0
30
0
71
4
72
2
0
VERTEX
8
1
10
5.31021846403
20
7.88085065289
30
2.570085426
70
192
0
VERTEX
8
1
10
5.32008343729
20
7.88162919091
30
2.87202030029
70
192
0
VERTEX
8
1
10
11.0313916545
20
7.84521139803
30
2.53984807856
70
192
0
VERTEX
8
1
10
11.033436129
20
7.84605285709
30
2.8468289353
70
192
0
VERTEX
8
1
10
0
20
0
30
0
70
128
71
4
72
3
73
2
0
VERTEX
8
1
10
0
20
0
30
0
70
128
71
3
72
1
73
2
0
SEQEND
0
POLYLINE
8
0
39
0
100
AcDb3dPolyline
66
1
10
0
20
0
30
0
70
9
0
VERTEX
8
0
100
AcDb3dPolylineVertex
10
7.67816022695
20
7.85866871191
30
-0.113753728504
0
VERTEX
8
0
100
AcDb3dPolylineVertex
10
7.49358634477
20
7.85981971363
30
-0.112382557945
0
VERTEX
8
0
100
AcDb3dPolylineVertex
10
7.50362547626
20
7.86718678787
30
2.55830057402
0
VERTEX
8
0
100
AcDb3dPolylineVertex
10
7.68777915659
20
7.86603461479
30
2.55554303979
0
SEQEND
0
POLYLINE
8
1
70
64
66
1
10
0
20
0
30
0
71
4
72
2
0
VERTEX
8
1
10
7.49358634477
20
7.85981971363
30
-0.112382557945
70
192
0
VERTEX
8
1
10
7.50362547626
20
7.86718678787
30
2.55830057402
70
192
0
VERTEX
8
1
10
7.67816022695
20
7.85866871191
30
-0.113753728504
70
192
0
VERTEX
8
1
10
7.68777915659
20
7.86603461479
30
2.55554303979
70
192
0
VERTEX
8
1
10
0
20
0
30
0
70
128
71
3
72
1
73
4
0
VERTEX
8
1
10
0
20
0
30
0
70
128
71
4
72
1
73
2
0
SEQEND
0
POLYLINE
8
0
39
0
100
AcDb3dPolyline
66
1
10
0
20
0
30
0
70
9
0
VERTEX
8
0
100
AcDb3dPolylineVertex
10
7.49358634477
20
7.85981971363
30
-0.112382557945
0
VERTEX
8
0
100
AcDb3dPolylineVertex
10
7.67816022695
20
7.85866871191
30
-0.113753728504
0
VERTEX
8
0
100
AcDb3dPolylineVertex
10
7.67653246745
20
7.67039936426
30
-0.112391094284
0
VERTEX
8
0
100
AcDb3dPolylineVertex
10
7.49169878964
20
7.67151398567
30
-0.111017731055
0
SEQEND
0
POLYLINE
8
1
70
64
66
1
10
0
20
0
30
0
71
4
72
2
0
VERTEX
8
1
10
7.49169878964
20
7.67151398567
30
-0.111017731055
70
192
0
VERTEX
8
1
10
7.49358634477
20
7.85981971363
30
-0.112382557945
70
192
0
VERTEX
8
1
10
7.67653246745
20
7.67039936426
30
-0.112391094284
70
192
0
VERTEX
8
1
10
7.67816022695
20
7.85866871191
30
-0.113753728504
70
192
0
VERTEX
8
1
10
0
20
0
30
0
70
128
71
4
72
3
73
2
0
VERTEX
8
1
10
0
20
0
30
0
70
128
71
3
72
1
73
2
0
SEQEND
0
POLYLINE
8
0
39
0
100
AcDb3dPolyline
66
1
10
0
20
0
30
0
70
9
0
VERTEX
8
0
100
AcDb3dPolylineVertex
10
7.50362547626
20
7.86718678787
30
2.55830057402
0
VERTEX
8
0
100
AcDb3dPolylineVertex
10
7.49358634477
20
7.85981971363
30
-0.112382557945
0
VERTEX
8
0
100
AcDb3dPolylineVertex
10
7.49169878964
20
7.67151398567
30
-0.111017731055
0
VERTEX
8
0
100
AcDb3dPolylineVertex
10
7.50253526476
20
7.69179871393
30
2.55878851603
0
SEQEND
0
POLYLINE
8
1
70
64
66
1
10
0
20
0
30
0
71
4
72
2
0
VERTEX
8
1
10
7.49169878964
20
7.67151398567
30
-0.111017731055
70
192
0
VERTEX
8
1
10
7.50253526476
20
7.69179871393
30
2.55878851603
70
192
0
VERTEX
8
1
10
7.49358634477
20
7.85981971363
30
-0.112382557945
70
192
0
VERTEX
8
1
10
7.50362547626
20
7.86718678787
30
2.55830057402
70
192
0
VERTEX
8
1
10
0
20
0
30
0
70
128
71
3
72
1
73
4
0
VERTEX
8
1
10
0
20
0
30
0
70
128
71
4
72
1
73
2
0
SEQEND
0
POLYLINE
8
0
39
0
100
AcDb3dPolyline
66
1
10
0
20
0
30
0
70
9
0
VERTEX
8
0
100
AcDb3dPolylineVertex
10
7.68777915659
20
7.86603461479
30
2.55554303979
0
VERTEX
8
0
100
AcDb3dPolylineVertex
10
7.50362547626
20
7.86718678787
30
2.55830057402
0
VERTEX
8
0
100
AcDb3dPolylineVertex
10
7.50253526476
20
7.69179871393
30
2.55878851603
0
VERTEX
8
0
100
AcDb3dPolylineVertex
10
7.68668950747
20
7.69067774657
30
2.55603087039
0
SEQEND
0
POLYLINE
8
1
70
64
66
1
10
0
20
0
30
0
71
4
72
2
0
VERTEX
8
1
10
7.68777915659
20
7.86603461479
30
2.55554303979
70
192
0
VERTEX
8
1
10
7.68668950747
20
7.69067774657
30
2.55603087039
70
192
0
VERTEX
8
1
10
7.50362547626
20
7.86718678787
30
2.55830057402
70
192
0
VERTEX
8
1
10
7.50253526476
20
7.69179871393
30
2.55878851603
70
192
0
VERTEX
8
1
10
0
20
0
30
0
70
128
71
4
72
2
73
1
0
VERTEX
8
1
10
0
20
0
30
0
70
128
71
4
72
1
73
3
0
SEQEND
0
POLYLINE
8
0
39
0
100
AcDb3dPolyline
66
1
10
0
20
0
30
0
70
9
0
VERTEX
8
0
100
AcDb3dPolylineVertex
10
7.67816022695
20
7.85866871191
30
-0.113753728504
0
VERTEX
8
0
100
AcDb3dPolylineVertex
10
7.68777915659
20
7.86603461479
30
2.55554303979
0
VERTEX
8
0
100
AcDb3dPolylineVertex
10
7.68668950747
20
7.69067774657
30
2.55603087039
0
VERTEX
8
0
100
AcDb3dPolylineVertex
10
7.67653246745
20
7.67039936426
30
-0.112391094284
0
SEQEND
0
POLYLINE
8
1
70
64
66
1
10
0
20
0
30
0
71
4
72
2
0
VERTEX
8
1
10
7.68777915659
20
7.86603461479
30
2.55554303979
70
192
0
VERTEX
8
1
10
7.67816022695
20
7.85866871191
30
-0.113753728504
70
192
0
VERTEX
8
1
10
7.68668950747
20
7.69067774657
30
2.55603087039
70
192
0
VERTEX
8
1
10
7.67653246745
20
7.67039936426
30
-0.112391094284
70
192
0
VERTEX
8
1
10
0
20
0
30
0
70
128
71
4
72
2
73
1
0
VERTEX
8
1
10
0
20
0
30
0
70
128
71
4
72
1
73
3
0
SEQEND
0
POLYLINE
8
0
39
0
100
AcDb3dPolyline
66
1
10
0
20
0
30
0
70
9
0
VERTEX
8
0
100
AcDb3dPolylineVertex
10
7.68668950747
20
7.69067774657
30
2.55603087039
0
VERTEX
8
0
100
AcDb3dPolylineVertex
10
7.50253526476
20
7.69179871393
30
2.55878851603
0
VERTEX
8
0
100
AcDb3dPolylineVertex
10
7.49169878964
20
7.67151398567
30
-0.111017731055
0
VERTEX
8
0
100
AcDb3dPolylineVertex
10
7.67653246745
20
7.67039936426
30
-0.112391094284
0
SEQEND
0
POLYLINE
8
1
70
64
66
1
10
0
20
0
30
0
71
4
72
2
0
VERTEX
8
1
10
7.68668950747
20
7.69067774657
30
2.55603087039
70
192
0
VERTEX
8
1
10
7.67653246745
20
7.67039936426
30
-0.112391094284
70
192
0
VERTEX
8
1
10
7.50253526476
20
7.69179871393
30
2.55878851603
70
192
0
VERTEX
8
1
10
7.49169878964
20
7.67151398567
30
-0.111017731055
70
192
0
VERTEX
8
1
10
0
20
0
30
0
70
128
71
4
72
2
73
1
0
VERTEX
8
1
10
0
20
0
30
0
70
128
71
4
72
1
73
3
0
SEQEND
0
POLYLINE
8
0
39
0
100
AcDb3dPolyline
66
1
10
0
20
0
30
0
70
9
0
VERTEX
8
0
100
AcDb3dPolylineVertex
10
9.0241143854
20
4.36088208479
30
3.01293354821
0
VERTEX
8
0
100
AcDb3dPolylineVertex
10
9.01770045138
20
4.35334885582
30
2.5747994238
0
VERTEX
8
0
100
AcDb3dPolylineVertex
10
3.55309642098
20
4.38937835072
30
2.61432199182
0
VERTEX
8
0
100
AcDb3dPolylineVertex
10
3.55007494528
20
4.39702913561
30
3.05575330389
0
SEQEND
0
POLYLINE
8
1
70
64
66
1
10
0
20
0
30
0
71
4
72
2
0
VERTEX
8
1
10
3.55309642098
20
4.38937835072
30
2.61432199182
70
192
0
VERTEX
8
1
10
3.55007494528
20
4.39702913561
30
3.05575330389
70
192
0
VERTEX
8
1
10
9.01770045138
20
4.35334885582
30
2.5747994238
70
192
0
VERTEX
8
1
10
9.0241143854
20
4.36088208479
30
3.01293354821
70
192
0
VERTEX
8
1
10
0
20
0
30
0
70
128
71
3
72
1
73
4
0
VERTEX
8
1
10
0
20
0
30
0
70
128
71
4
72
1
73
2
0
SEQEND
0
POLYLINE
8
0
39
0
100
AcDb3dPolyline
66
1
10
0
20
0
30
0
70
9
0
VERTEX
8
0
100
AcDb3dPolylineVertex
10
9.01770045138
20
4.35334885582
30
2.5747994238
0
VERTEX
8
0
100
AcDb3dPolylineVertex
10
8.27391442048
20
3.75203662657
30
2.58375873269
0
VERTEX
8
0
100
AcDb3dPolylineVertex
10
4.19937279356
20
3.75642842963
30
2.61336048011
0
VERTEX
8
0
100
AcDb3dPolylineVertex
10
3.55309642098
20
4.38937835072
30
2.61432199182
0
SEQEND
0
POLYLINE
8
1
70
64
66
1
10
0
20
0
30
0
71
4
72
2
0
VERTEX
8
1
10
3.55309642098
20
4.38937835072
30
2.61432199182
70
192
0
VERTEX
8
1
10
4.19937279356
20
3.75642842963
30
2.61336048011
70
192
0
VERTEX
8
1
10
8.27391442048
20
3.75203662657
30
2.58375873269
70
192
0
VERTEX
8
1
10
9.01770045138
20
4.35334885582
30
2.5747994238
70
192
0
VERTEX
8
1
10
0
20
0
30
0
70
128
71
1
72
4
73
3
0
VERTEX
8
1
10
0
20
0
30
0
70
128
71
1
72
3
73
2
0
SEQEND
0
POLYLINE
8
0
39
0
100
AcDb3dPolyline
66
1
10
0
20
0
30
0
70
9
0
VERTEX
8
0
100
AcDb3dPolylineVertex
10
6.64353410583
20
4.36900261364
30
2.59197051837
0
VERTEX
8
0
100
AcDb3dPolylineVertex
10
6.8196510798
20
4.36784139782
30
2.59069672781
0
VERTEX
8
0
100
AcDb3dPolylineVertex
10
6.8132543879
20
4.32167989165
30
-0.0819181303526
0
VERTEX
8
0
100
AcDb3dPolylineVertex
10
6.61938033768
20
4.32295919393
30
-0.0804783237778
0
SEQEND
0
POLYLINE
8
1
70
64
66
1
10
0
20
0
30
0
71
4
72
2
0
VERTEX
8
1
10
6.61938033768
20
4.32295919393
30
-0.0804783237778
70
192
0
VERTEX
8
1
10
6.64353410583
20
4.36900261364
30
2.59197051837
70
192
0
VERTEX
8
1
10
6.8132543879
20
4.32167989165
30
-0.0819181303526
70
192
0
VERTEX
8
1
10
6.8196510798
20
4.36784139782
30
2.59069672781
70
192
0
VERTEX
8
1
10
0
20
0
30
0
70
128
71
3
72
1
73
4
0
VERTEX
8
1
10
0
20
0
30
0
70
128
71
4
72
1
73
2
0
SEQEND
0
POLYLINE
8
0
39
0
100
AcDb3dPolyline
66
1
10
0
20
0
30
0
70
9
0
VERTEX
8
0
100
AcDb3dPolylineVertex
10
6.8196510798
20
4.36784139782
30
2.59069672781
0
VERTEX
8
0
100
AcDb3dPolylineVertex
10
6.64353410583
20
4.36900261364
30
2.59197051837
0
VERTEX
8
0
100
AcDb3dPolylineVertex
10
6.63834822917
20
4.17192415107
30
2.59317200025
0
VERTEX
8
0
100
AcDb3dPolylineVertex
10
6.81697058277
20
4.16632969097
30
2.5919062259
0
SEQEND
0
POLYLINE
8
1
70
64
66
1
10
0
20
0
30
0
71
4
72
2
0
VERTEX
8
1
10
6.8196510798
20
4.36784139782
30
2.59069672781
70
192
0
VERTEX
8
1
10
6.81697058277
20
4.16632969097
30
2.5919062259
70
192
0
VERTEX
8
1
10
6.64353410583
20
4.36900261364
30
2.59197051837
70
192
0
VERTEX
8
1
10
6.63834822917
20
4.17192415107
30
2.59317200025
70
192
0
VERTEX
8
1
10
0
20
0
30
0
70
128
71
4
72
2
73
3
0
VERTEX
8
1
10
0
20
0
30
0
70
128
71
2
72
1
73
3
0
SEQEND
0
POLYLINE
8
0
39
0
100
AcDb3dPolyline
66
1
10
0
20
0
30
0
70
9
0
VERTEX
8
0
100
AcDb3dPolylineVertex
10
6.8132543879
20
4.32167989165
30
-0.0819181303526
0
VERTEX
8
0
100
AcDb3dPolylineVertex
10
6.8196510798
20
4.36784139782
30
2.59069672781
0
VERTEX
8
0
100
AcDb3dPolylineVertex
10
6.81697058277
20
4.16632969097
30
2.5919062259
0
VERTEX
8
0
100
AcDb3dPolylineVertex
10
6.81081808946
20
4.13846684652
30
-0.0805856966151
0
SEQEND
0
POLYLINE
8
1
70
64
66
1
10
0
20
0
30
0
71
4
72
2
0
VERTEX
8
1
10
6.8196510798
20
4.36784139782
30
2.59069672781
70
192
0
VERTEX
8
1
10
6.8132543879
20
4.32167989165
30
-0.0819181303526
70
192
0
VERTEX
8
1
10
6.81697058277
20
4.16632969097
30
2.5919062259
70
192
0
VERTEX
8
1
10
6.81081808946
20
4.13846684652
30
-0.0805856966151
70
192
0
VERTEX
8
1
10
0
20
0
30
0
70
128
71
4
72
2
73
1
0
VERTEX
8
1
10
0
20
0
30
0
70
128
71
4
72
1
73
3
0
SEQEND
0
POLYLINE
8
0
39
0
100
AcDb3dPolyline
66
1
10
0
20
0
30
0
70
9
0
VERTEX
8
0
100
AcDb3dPolylineVertex
10
6.61938033768
20
4.32295919393
30
-0.0804783237778
0
VERTEX
8
0
100
AcDb3dPolylineVertex
10
6.8132543879
20
4.32167989165
30
-0.0819181303526
0
VERTEX
8
0
100
AcDb3dPolylineVertex
10
6.81081808946
20
4.13846684652
30
-0.0805856966151
0
VERTEX
8
0
100
AcDb3dPolylineVertex
10
6.61468934771
20
4.14461023425
30
-0.0791638674688
0
SEQEND
0
POLYLINE
8
1
70
64
66
1
10
0
20
0
30
0
71
4
72
2
0
VERTEX
8
1
10
6.61468934771
20
4.14461023425
30
-0.0791638674688
70
192
0
VERTEX
8
1
10
6.61938033768
20
4.32295919393
30
-0.0804783237778
70
192
0
VERTEX
8
1
10
6.81081808946
20
4.13846684652
30
-0.0805856966151
70
192
0
VERTEX
8
1
10
6.8132543879
20
4.32167989165
30
-0.0819181303526
70
192
0
VERTEX
8
1
10
0
20
0
30
0
70
128
71
3
72
1
73
4
0
VERTEX
8
1
10
0
20
0
30
0
70
128
71
4
72
1
73
2
0
SEQEND
0
POLYLINE
8
0
39
0
100
AcDb3dPolyline
66
1
10
0
20
0
30
0
70
9
0
VERTEX
8
0
100
AcDb3dPolylineVertex
10
6.64353410583
20
4.36900261364
30
2.59197051837
0
VERTEX
8
0
100
AcDb3dPolylineVertex
10
6.61938033768
20
4.32295919393
30
-0.0804783237778
0
VERTEX
8
0
100
AcDb3dPolylineVertex
10
6.61468934771
20
4.14461023425
30
-0.0791638674688
0
VERTEX
8
0
100
AcDb3dPolylineVertex
10
6.63834822917
20
4.17192415107
30
2.59317200025
0
SEQEND
0
POLYLINE
8
1
70
64
66
1
10
0
20
0
30
0
71
4
72
2
0
VERTEX
8
1
10
6.61468934771
20
4.14461023425
30
-0.0791638674688
70
192
0
VERTEX
8
1
10
6.63834822917
20
4.17192415107
30
2.59317200025
70
192
0
VERTEX
8
1
10
6.61938033768
20
4.32295919393
30
-0.0804783237778
70
192
0
VERTEX
8
1
10
6.64353410583
20
4.36900261364
30
2.59197051837
70
192
0
VERTEX
8
1
10
0
20
0
30
0
70
128
71
3
72
1
73
4
0
VERTEX
8
1
10
0
20
0
30
0
70
128
71
4
72
1
73
2
0
SEQEND
0
POLYLINE
8
0
39
0
100
AcDb3dPolyline
66
1
10
0
20
0
30
0
70
9
0
VERTEX
8
0
100
AcDb3dPolylineVertex
10
6.61468934771
20
4.14461023425
30
-0.0791638674688
0
VERTEX
8
0
100
AcDb3dPolylineVertex
10
6.81081808946
20
4.13846684652
30
-0.0805856966151
0
VERTEX
8
0
100
AcDb3dPolylineVertex
10
6.81697058277
20
4.16632969097
30
2.5919062259
0
VERTEX
8
0
100
AcDb3dPolylineVertex
10
6.63834822917
20
4.17192415107
30
2.59317200025
0
SEQEND
0
POLYLINE
8
1
70
64
66
1
10
0
20
0
30
0
71
4
72
2
0
VERTEX
8
1
10
6.81697058277
20
4.16632969097
30
2.5919062259
70
192
0
VERTEX
8
1
10
6.81081808946
20
4.13846684652
30
-0.0805856966151
70
192
0
VERTEX
8
1
10
6.63834822917
20
4.17192415107
30
2.59317200025
70
192
0
VERTEX
8
1
10
6.61468934771
20
4.14461023425
30
-0.0791638674688
70
192
0
VERTEX
8
1
10
0
20
0
30
0
70
128
71
4
72
2
73
1
0
VERTEX
8
1
10
0
20
0
30
0
70
128
71
4
72
1
73
3
0
SEQEND
0
POLYLINE
8
0
39
0
100
AcDb3dPolyline
66
1
10
0
20
0
30
0
70
9
0
VERTEX
8
0
100
AcDb3dPolylineVertex
10
11.0377899289
20
7.67381853272
30
2.97052202088
0
VERTEX
8
0
100
AcDb3dPolylineVertex
10
11.0686691868
20
6.44894149888
30
3.83766450072
0
VERTEX
8
0
100
AcDb3dPolylineVertex
10
3.28665538632
20
6.50359779022
30
3.89107584934
0
VERTEX
8
0
100
AcDb3dPolylineVertex
10
3.27397193261
20
7.72064466456
30
3.02926372541
0
SEQEND
0
POLYLINE
8
0
39
0
100
AcDb3dPolyline
66
1
10
0
20
0
30
0
70
9
0
VERTEX
8
0
100
AcDb3dPolylineVertex
10
8.69989174588
20
6.55064961525
30
3.79367135889
0
VERTEX
8
0
100
AcDb3dPolylineVertex
10
8.68815638872
20
7.54330644077
30
3.09077044891
0
VERTEX
8
0
100
AcDb3dPolylineVertex
10
8.09786206454
20
7.54604061801
30
3.09582175414
0
VERTEX
8
0
100
AcDb3dPolylineVertex
10
8.10527274366
20
6.55237436124
30
3.7994889811
0
SEQEND
0
POLYLINE
8
0
39
0
100
AcDb3dPolyline
66
1
10
0
20
0
30
0
70
9
0
VERTEX
8
0
100
AcDb3dPolylineVertex
10
7.97997058554
20
6.55169062877
30
3.80145635162
0
VERTEX
8
0
100
AcDb3dPolylineVertex
10
7.96220203839
20
7.54859151929
30
3.09562090254
0
VERTEX
8
0
100
AcDb3dPolylineVertex
10
7.36896981683
20
7.54762067821
30
3.10333090635
0
VERTEX
8
0
100
AcDb3dPolylineVertex
10
7.38668482191
20
6.54912707492
30
3.81029536983
0
SEQEND
0
POLYLINE
8
0
39
0
100
AcDb3dPolyline
66
1
10
0
20
0
30
0
70
9
0
VERTEX
8
0
100
AcDb3dPolylineVertex
10
7.24369709842
20
6.55322097426
30
3.80908843188
0
VERTEX
8
0
100
AcDb3dPolylineVertex
10
7.23757413829
20
7.54647463124
30
3.1056980693
0
VERTEX
8
0
100
AcDb3dPolylineVertex
10
6.6527950745
20
7.54804931928
30
3.1115053952
0
VERTEX
8
0
100
AcDb3dPolylineVertex
10
6.66097655655
20
6.55574762767
30
3.81419711405
0
SEQEND
0
POLYLINE
8
0
39
0
100
AcDb3dPolyline
66
1
10
0
20
0
30
0
70
9
0
VERTEX
8
0
100
AcDb3dPolylineVertex
10
6.49577831695
20
6.55798676195
30
3.81456674498
0
VERTEX
8
0
100
AcDb3dPolylineVertex
10
6.49341384691
20
7.54943817966
30
3.11240828162
0
VERTEX
8
0
100
AcDb3dPolylineVertex
10
5.8884203226
20
7.55142535202
30
3.11816264304
0
VERTEX
8
0
100
AcDb3dPolylineVertex
10
5.89071425655
20
6.55955187698
30
3.82062083496
0
SEQEND
0
POLYLINE
8
0
39
0
100
AcDb3dPolyline
66
1
10
0
20
0
30
0
70
9
0
VERTEX
8
0
100
AcDb3dPolylineVertex
10
5.71775457824
20
6.56210320765
30
3.82086128088
0
VERTEX
8
0
100
AcDb3dPolylineVertex
10
5.72263466633
20
7.54723246945
30
3.12309487381
0
VERTEX
8
0
100
AcDb3dPolylineVertex
10
5.11261435626
20
7.54728227278
30
3.13028083107
0
VERTEX
8
0
100
AcDb3dPolylineVertex
10
5.10305352294
20
6.56222750811
30
3.82804996851
0
SEQEND
0
POLYLINE
8
1
70
64
66
1
10
0
20
0
30
0
71
24
72
32
0
VERTEX
8
1
10
3.27397193261
20
7.72064466456
30
3.02926372541
70
192
0
VERTEX
8
1
10
5.11261435626
20
7.54728227278
30
3.13028083107
70
192
0
VERTEX
8
1
10
3.28665538632
20
6.50359779022
30
3.89107584934
70
192
0
VERTEX
8
1
10
5.72263466633
20
7.54723246945
30
3.12309487381
70
192
0
VERTEX
8
1
10
5.8884203226
20
7.55142535202
30
3.11816264304
70
192
0
VERTEX
8
1
10
6.49341384691
20
7.54943817966
30
3.11240828162
70
192
0
VERTEX
8
1
10
6.6527950745
20
7.54804931928
30
3.1115053952
70
192
0
VERTEX
8
1
10
5.10305352294
20
6.56222750811
30
3.82804996851
70
192
0
VERTEX
8
1
10
7.23757413829
20
7.54647463124
30
3.1056980693
70
192
0
VERTEX
8
1
10
7.36896981683
20
7.54762067821
30
3.10333090635
70
192
0
VERTEX
8
1
10
5.71775457824
20
6.56210320765
30
3.82086128088
70
192
0
VERTEX
8
1
10
5.89071425655
20
6.55955187698
30
3.82062083496
70
192
0
VERTEX
8
1
10
7.96220203839
20
7.54859151929
30
3.09562090254
70
192
0
VERTEX
8
1
10
8.09786206454
20
7.54604061801
30
3.09582175414
70
192
0
VERTEX
8
1
10
6.49577831695
20
6.55798676195
30
3.81456674498
70
192
0
VERTEX
8
1
10
6.66097655655
20
6.55574762767
30
3.81419711405
70
192
0
VERTEX
8
1
10
8.68815638872
20
7.54330644077
30
3.09077044891
70
192
0
VERTEX
8
1
10
7.24369709842
20
6.55322097426
30
3.80908843188
70
192
0
VERTEX
8
1
10
7.38668482191
20
6.54912707492
30
3.81029536983
70
192
0
VERTEX
8
1
10
7.97997058554
20
6.55169062877
30
3.80145635162
70
192
0
VERTEX
8
1
10
8.10527274366
20
6.55237436124
30
3.7994889811
70
192
0
VERTEX
8
1
10
8.69989174588
20
6.55064961525
30
3.79367135889
70
192
0
VERTEX
8
1
10
11.0377899289
20
7.67381853272
30
2.97052202088
70
192
0
VERTEX
8
1
10
11.0686691868
20
6.44894149888
30
3.83766450072
70
192
0
VERTEX
8
1
10
0
20
0
30
0
70
128
71
19
72
24
73
3
0
VERTEX
8
1
10
0
20
0
30
0
70
128
71
19
72
20
73
24
0
VERTEX
8
1
10
0
20
0
30
0
70
128
71
24
72
20
73
22
0
VERTEX
8
1
10
0
20
0
30
0
70
128
71
24
72
22
73
23
0
VERTEX
8
1
10
0
20
0
30
0
70
128
71
23
72
22
73
17
0
VERTEX
8
1
10
0
20
0
30
0
70
128
71
23
72
17
73
14
0
VERTEX
8
1
10
0
20
0
30
0
70
128
71
10
72
23
73
14
0
VERTEX
8
1
10
0
20
0
30
0
70
128
71
7
72
23
73
10
0
VERTEX
8
1
10
0
20
0
30
0
70
128
71
5
72
23
73
7
0
VERTEX
8
1
10
0
20
0
30
0
70
128
71
2
72
23
73
5
0
VERTEX
8
1
10
0
20
0
30
0
70
128
71
23
72
2
73
1
0
VERTEX
8
1
10
0
20
0
30
0
70
128
71
3
72
1
73
2
0
VERTEX
8
1
10
0
20
0
30
0
70
128
71
8
72
3
73
2
0
VERTEX
8
1
10
0
20
0
30
0
70
128
71
3
72
8
73
11
0
VERTEX
8
1
10
0
20
0
30
0
70
128
71
3
72
11
73
12
0
VERTEX
8
1
10
0
20
0
30
0
70
128
71
19
72
3
73
12
0
VERTEX
8
1
10
0
20
0
30
0
70
128
71
12
72
15
73
19
0
VERTEX
8
1
10
0
20
0
30
0
70
128
71
19
72
15
73
18
0
VERTEX
8
1
10
0
20
0
30
0
70
128
71
10
72
19
73
18
0
VERTEX
8
1
10
0
20
0
30
0
70
128
71
10
72
18
73
9
0
VERTEX
8
1
10
0
20
0
30
0
70
128
71
7
72
10
73
9
0
VERTEX
8
1
10
0
20
0
30
0
70
128
71
15
72
16
73
18
0
VERTEX
8
1
10
0
20
0
30
0
70
128
71
16
72
15
73
6
0
VERTEX
8
1
10
0
20
0
30
0
70
128
71
7
72
16
73
6
0
VERTEX
8
1
10
0
20
0
30
0
70
128
71
5
72
7
73
6
0
VERTEX
8
1
10
0
20
0
30
0
70
128
71
12
72
11
73
4
0
VERTEX
8
1
10
0
20
0
30
0
70
128
71
12
72
4
73
5
0
VERTEX
8
1
10
0
20
0
30
0
70
128
71
2
72
5
73
4
0
VERTEX
8
1
10
0
20
0
30
0
70
128
71
10
72
14
73
13
0
VERTEX
8
1
10
0
20
0
30
0
70
128
71
14
72
21
73
13
0
VERTEX
8
1
10
0
20
0
30
0
70
128
71
21
72
20
73
13
0
VERTEX
8
1
10
0
20
0
30
0
70
128
71
20
72
21
73
22
0
SEQEND
0
POLYLINE
8
0
39
0
100
AcDb3dPolyline
66
1
10
0
20
0
30
0
70
9
0
VERTEX
8
0
100
AcDb3dPolylineVertex
10
11.0686691868
20
6.44894149888
30
3.83766450072
0
VERTEX
8
0
100
AcDb3dPolylineVertex
10
11.0773526304
20
6.02538335673
30
3.84057761888
0
VERTEX
8
0
100
AcDb3dPolylineVertex
10
10.5301432553
20
5.58299468165
30
3.84746570015
0
VERTEX
8
0
100
AcDb3dPolylineVertex
10
3.29272175404
20
5.62081613921
30
3.89723061743
0
VERTEX
8
0
100
AcDb3dPolylineVertex
10
3.28665538632
20
6.50359779022
30
3.89107584934
0
SEQEND
0
POLYLINE
8
1
70
64
66
1
10
0
20
0
30
0
71
5
72
3
0
VERTEX
8
1
10
3.29272175404
20
5.62081613921
30
3.89723061743
70
192
0
VERTEX
8
1
10
3.28665538632
20
6.50359779022
30
3.89107584934
70
192
0
VERTEX
8
1
10
10.5301432553
20
5.58299468165
30
3.84746570015
70
192
0
VERTEX
8
1
10
11.0773526304
20
6.02538335673
30
3.84057761888
70
192
0
VERTEX
8
1
10
11.0686691868
20
6.44894149888
30
3.83766450072
70
192
0
VERTEX
8
1
10
0
20
0
30
0
70
128
71
3
72
5
73
4
0
VERTEX
8
1
10
0
20
0
30
0
70
128
71
2
72
5
73
3
0
VERTEX
8
1
10
0
20
0
30
0
70
128
71
2
72
3
73
1
0
SEQEND
0
POLYLINE
8
0
39
0
100
AcDb3dPolyline
66
1
10
0
20
0
30
0
70
9
0
VERTEX
8
0
100
AcDb3dPolylineVertex
10
10.5301432553
20
5.58299468165
30
3.84746570015
0
VERTEX
8
0
100
AcDb3dPolylineVertex
10
9.0241143854
20
4.36088208479
30
3.01293354821
0
VERTEX
8
0
100
AcDb3dPolylineVertex
10
3.55007494528
20
4.39702913561
30
3.05575330389
0
VERTEX
8
0
100
AcDb3dPolylineVertex
10
3.2959904699
20
4.64770914436
30
3.22878295272
0
VERTEX
8
0
100
AcDb3dPolylineVertex
10
3.29272175404
20
5.62081613921
30
3.89723061743
0
SEQEND
0
POLYLINE
8
1
70
64
66
1
10
0
20
0
30
0
71
5
72
3
0
VERTEX
8
1
10
3.29272175404
20
5.62081613921
30
3.89723061743
70
192
0
VERTEX
8
1
10
3.2959904699
20
4.64770914436
30
3.22878295272
70
192
0
VERTEX
8
1
10
3.55007494528
20
4.39702913561
30
3.05575330389
70
192
0
VERTEX
8
1
10
10.5301432553
20
5.58299468165
30
3.84746570015
70
192
0
VERTEX
8
1
10
9.0241143854
20
4.36088208479
30
3.01293354821
70
192
0
VERTEX
8
1
10
0
20
0
30
0
70
128
71
3
72
2
73
1
0
VERTEX
8
1
10
0
20
0
30
0
70
128
71
5
72
3
73
1
0
VERTEX
8
1
10
0
20
0
30
0
70
128
71
4
72
5
73
1
0
SEQEND
0
POLYLINE
8
0
39
0
100
AcDb3dPolyline
66
1
10
0
20
0
30
0
70
9
0
VERTEX
8
0
100
AcDb3dPolylineVertex
10
10.8147938131
20
7.35042163827
30
2.94254075419
0
VERTEX
8
0
100
AcDb3dPolylineVertex
10
10.8243896814
20
6.36125081514
30
2.9429577744
0
VERTEX
8
0
100
AcDb3dPolylineVertex
10
11.0645277129
20
6.36358806669
30
2.96110065876
0
VERTEX
8
0
100
AcDb3dPolylineVertex
10
11.0442882105
20
7.3526549617
30
2.95987953421
0
SEQEND
0
POLYLINE
8
1
70
64
66
1
10
0
20
0
30
0
71
4
72
2
0
VERTEX
8
1
10
11.0645277129
20
6.36358806669
30
2.96110065876
70
192
0
VERTEX
8
1
10
10.8243896814
20
6.36125081514
30
2.9429577744
70
192
0
VERTEX
8
1
10
11.0442882105
20
7.3526549617
30
2.95987953421
70
192
0
VERTEX
8
1
10
10.8147938131
20
7.35042163827
30
2.94254075419
70
192
0
VERTEX
8
1
10
0
20
0
30
0
70
128
71
4
72
2
73
3
0
VERTEX
8
1
10
0
20
0
30
0
70
128
71
2
72
1
73
3
0
SEQEND
0
POLYLINE
8
0
39
0
100
AcDb3dPolyline
66
1
10
0
20
0
30
0
70
9
0
VERTEX
8
0
100
AcDb3dPolylineVertex
10
11.0627748138
20
6.3539436132
30
2.67072600563
0
VERTEX
8
0
100
AcDb3dPolylineVertex
10
11.0419996024
20
7.36548909224
30
2.65813576523
0
VERTEX
8
0
100
AcDb3dPolylineVertex
10
11.0442882105
20
7.3526549617
30
2.95987953421
0
VERTEX
8
0
100
AcDb3dPolylineVertex
10
11.0645277129
20
6.36358806669
30
2.96110065876
0
SEQEND
0
POLYLINE
8
1
70
64
66
1
10
0
20
0
30
0
71
4
72
2
0
VERTEX
8
1
10
11.0419996024
20
7.36548909224
30
2.65813576523
70
192
0
VERTEX
8
1
10
11.0442882105
20
7.3526549617
30
2.95987953421
70
192
0
VERTEX
8
1
10
11.0645277129
20
6.36358806669
30
2.96110065876
70
192
0
VERTEX
8
1
10
11.0627748138
20
6.3539436132
30
2.67072600563
70
192
0
VERTEX
8
1
10
0
20
0
30
0
70
128
71
3
72
4
73
1
0
VERTEX
8
1
10
0
20
0
30
0
70
128
71
3
72
1
73
2
0
SEQEND
0
POLYLINE
8
0
39
0
100
AcDb3dPolyline
66
1
10
0
20
0
30
0
70
9
0
VERTEX
8
0
100
AcDb3dPolylineVertex
10
10.8243896814
20
6.36125081514
30
2.9429577744
0
VERTEX
8
0
100
AcDb3dPolylineVertex
10
10.8147938131
20
7.35042163827
30
2.94254075419
0
VERTEX
8
0
100
AcDb3dPolylineVertex
10
10.8330075867
20
7.35111987134
30
2.70137771942
0
VERTEX
8
0
100
AcDb3dPolylineVertex
10
10.8415564011
20
6.35782256314
30
2.71617939687
0
SEQEND
0
POLYLINE
8
1
70
64
66
1
10
0
20
0
30
0
71
4
72
2
0
VERTEX
8
1
10
10.8415564011
20
6.35782256314
30
2.71617939687
70
192
0
VERTEX
8
1
10
10.8243896814
20
6.36125081514
30
2.9429577744
70
192
0
VERTEX
8
1
10
10.8330075867
20
7.35111987134
30
2.70137771942
70
192
0
VERTEX
8
1
10
10.8147938131
20
7.35042163827
30
2.94254075419
70
192
0
VERTEX
8
1
10
0
20
0
30
0
70
128
71
4
72
3
73
2
0
VERTEX
8
1
10
0
20
0
30
0
70
128
71
3
72
1
73
2
0
SEQEND
0
POLYLINE
8
0
39
0
100
AcDb3dPolyline
66
1
10
0
20
0
30
0
70
9
0
VERTEX
8
0
100
AcDb3dPolylineVertex
10
10.8243896814
20
6.36125081514
30
2.9429577744
0
VERTEX
8
0
100
AcDb3dPolylineVertex
10
10.8415564011
20
6.35782256314
30
2.71617939687
0
VERTEX
8
0
100
AcDb3dPolylineVertex
10
11.0627748138
20
6.3539436132
30
2.67072600563
0
VERTEX
8
0
100
AcDb3dPolylineVertex
10
11.0645277129
20
6.36358806669
30
2.96110065876
0
SEQEND
0
POLYLINE
8
1
70
64
66
1
10
0
20
0
30
0
71
4
72
2
0
VERTEX
8
1
10
11.0645277129
20
6.36358806669
30
2.96110065876
70
192
0
VERTEX
8
1
10
11.0627748138
20
6.3539436132
30
2.67072600563
70
192
0
VERTEX
8
1
10
10.8415564011
20
6.35782256314
30
2.71617939687
70
192
0
VERTEX
8
1
10
10.8243896814
20
6.36125081514
30
2.9429577744
70
192
0
VERTEX
8
1
10
0
20
0
30
0
70
128
71
3
72
2
73
1
0
VERTEX
8
1
10
0
20
0
30
0
70
128
71
4
72
3
73
1
0
SEQEND
0
POLYLINE
8
0
39
0
100
AcDb3dPolyline
66
1
10
0
20
0
30
0
70
9
0
VERTEX
8
0
100
AcDb3dPolylineVertex
10
10.8330075867
20
7.35111987134
30
2.70137771942
0
VERTEX
8
0
100
AcDb3dPolylineVertex
10
10.8147938131
20
7.35042163827
30
2.94254075419
0
VERTEX
8
0
100
AcDb3dPolylineVertex
10
11.0442882105
20
7.3526549617
30
2.95987953421
0
VERTEX
8
0
100
AcDb3dPolylineVertex
10
11.0419996024
20
7.36548909224
30
2.65813576523
0
SEQEND
0
POLYLINE
8
1
70
64
66
1
10
0
20
0
30
0
71
4
72
2
0
VERTEX
8
1
10
10.8147938131
20
7.35042163827
30
2.94254075419
70
192
0
VERTEX
8
1
10
10.8330075867
20
7.35111987134
30
2.70137771942
70
192
0
VERTEX
8
1
10
11.0419996024
20
7.36548909224
30
2.65813576523
70
192
0
VERTEX
8
1
10
11.0442882105
20
7.3526549617
30
2.95987953421
70
192
0
VERTEX
8
1
10
0
20
0
30
0
70
128
71
3
72
2
73
4
0
VERTEX
8
1
10
0
20
0
30
0
70
128
71
2
72
1
73
4
0
SEQEND
0
POLYLINE
8
0
39
0
100
AcDb3dPolyline
66
1
10
0
20
0
30
0
70
9
0
VERTEX
8
0
100
AcDb3dPolylineVertex
10
7.78000982737
20
8.94810157776
30
0.759227442737
0
VERTEX
8
0
100
AcDb3dPolylineVertex
10
7.51004152516
20
8.93416016673
30
0.767134236294
0
VERTEX
8
0
100
AcDb3dPolylineVertex
10
7.50546362915
20
8.91469003097
30
-0.120038296768
0
VERTEX
8
0
100
AcDb3dPolylineVertex
10
7.76684478276
20
8.93821105631
30
-0.122160353282
0
SEQEND
0
POLYLINE
8
1
70
64
66
1
10
0
20
0
30
0
71
4
72
2
0
VERTEX
8
1
10
7.78000982737
20
8.94810157776
30
0.759227442737
70
192
0
VERTEX
8
1
10
7.76684478276
20
8.93821105631
30
-0.122160353282
70
192
0
VERTEX
8
1
10
7.51004152516
20
8.93416016673
30
0.767134236294
70
192
0
VERTEX
8
1
10
7.50546362915
20
8.91469003097
30
-0.120038296768
70
192
0
VERTEX
8
1
10
0
20
0
30
0
70
128
71
4
72
2
73
1
0
VERTEX
8
1
10
0
20
0
30
0
70
128
71
4
72
1
73
3
0
SEQEND
0
POLYLINE
8
0
39
0
100
AcDb3dPolyline
66
1
10
0
20
0
30
0
70
9
0
VERTEX
8
0
100
AcDb3dPolylineVertex
10
7.51004152516
20
8.93416016673
30
0.767134236294
0
VERTEX
8
0
100
AcDb3dPolylineVertex
10
7.78000982737
20
8.94810157776
30
0.759227442737
0
VERTEX
8
0
100
AcDb3dPolylineVertex
10
7.7604386147
20
10.5084986327
30
0.749366855266
0
VERTEX
8
0
100
AcDb3dPolylineVertex
10
7.49431041967
20
10.5058376338
30
0.757087107034
0
SEQEND
0
POLYLINE
8
1
70
64
66
1
10
0
20
0
30
0
71
4
72
2
0
VERTEX
8
1
10
7.7604386147
20
10.5084986327
30
0.749366855266
70
192
0
VERTEX
8
1
10
7.49431041967
20
10.5058376338
30
0.757087107034
70
192
0
VERTEX
8
1
10
7.78000982737
20
8.94810157776
30
0.759227442737
70
192
0
VERTEX
8
1
10
7.51004152516
20
8.93416016673
30
0.767134236294
70
192
0
VERTEX
8
1
10
0
20
0
30
0
70
128
71
2
72
4
73
3
0
VERTEX
8
1
10
0
20
0
30
0
70
128
71
2
72
3
73
1
0
SEQEND
0
POLYLINE
8
0
39
0
100
AcDb3dPolyline
66
1
10
0
20
0
30
0
70
9
0
VERTEX
8
0
100
AcDb3dPolylineVertex
10
7.47194393068
20
12.2169810346
30
-0.228000137451
0
VERTEX
8
0
100
AcDb3dPolylineVertex
10
7.47056904851
20
12.218169855
30
-0.481394706917
0
VERTEX
8
0
100
AcDb3dPolylineVertex
10
7.46769683564
20
12.5053895526
30
-0.482782776404
0
VERTEX
8
0
100
AcDb3dPolylineVertex
10
7.46612055045
20
12.5102605055
30
-0.766770799863
0
VERTEX
8
0
100
AcDb3dPolylineVertex
10
7.45508345509
20
12.537525148
30
-2.7682287669
0
VERTEX
8
0
100
AcDb3dPolylineVertex
10
7.50546362915
20
8.91469003097
30
-0.120038296768
0
VERTEX
8
0
100
AcDb3dPolylineVertex
10
7.51004152516
20
8.93416016673
30
0.767134236294
0
VERTEX
8
0
100
AcDb3dPolylineVertex
10
7.49431041967
20
10.5058376338
30
0.757087107034
0
VERTEX
8
0
100
AcDb3dPolylineVertex
10
7.49552924022
20
10.5074683707
30
0.986693064657
0
SEQEND
0
POLYLINE
8
1
70
64
66
1
10
0
20
0
30
0
71
9
72
7
0
VERTEX
8
1
10
7.50546362915
20
8.91469003097
30
-0.120038296768
70
192
0
VERTEX
8
1
10
7.51004152516
20
8.93416016673
30
0.767134236294
70
192
0
VERTEX
8
1
10
7.49431041967
20
10.5058376338
30
0.757087107034
70
192
0
VERTEX
8
1
10
7.49552924022
20
10.5074683707
30
0.986693064657
70
192
0
VERTEX
8
1
10
7.47056904851
20
12.218169855
30
-0.481394706917
70
192
0
VERTEX
8
1
10
7.47194393068
20
12.2169810346
30
-0.228000137451
70
192
0
VERTEX
8
1
10
7.45508345509
20
12.537525148
30
-2.7682287669
70
192
0
VERTEX
8
1
10
7.46612055045
20
12.5102605055
30
-0.766770799863
70
192
0
VERTEX
8
1
10
7.46769683564
20
12.5053895526
30
-0.482782776404
70
192
0
VERTEX
8
1
10
0
20
0
30
0
70
128
71
8
72
7
73
5
0
VERTEX
8
1
10
0
20
0
30
0
70
128
71
9
72
8
73
5
0
VERTEX
8
1
10
0
20
0
30
0
70
128
71
5
72
7
73
1
0
VERTEX
8
1
10
0
20
0
30
0
70
128
71
5
72
1
73
3
0
VERTEX
8
1
10
0
20
0
30
0
70
128
71
6
72
5
73
3
0
VERTEX
8
1
10
0
20
0
30
0
70
128
71
6
72
3
73
4
0
VERTEX
8
1
10
0
20
0
30
0
70
128
71
3
72
1
73
2
0
SEQEND
0
POLYLINE
8
0
39
0
100
AcDb3dPolyline
66
1
10
0
20
0
30
0
70
9
0
VERTEX
8
0
100
AcDb3dPolylineVertex
10
7.45508345509
20
12.537525148
30
-2.7682287669
0
VERTEX
8
0
100
AcDb3dPolylineVertex
10
5.61969567082
20
12.4960471795
30
-2.75630141709
0
VERTEX
8
0
100
AcDb3dPolylineVertex
10
5.61927259214
20
11.8505311639
30
-2.37915816152
0
VERTEX
8
0
100
AcDb3dPolylineVertex
10
5.94294689382
20
11.5938678558
30
-2.19566558143
0
VERTEX
8
0
100
AcDb3dPolylineVertex
10
5.95129502207
20
10.4363085181
30
-1.24301230359
0
VERTEX
8
0
100
AcDb3dPolylineVertex
10
6.31433938056
20
10.1760782378
30
-1.05991167727
0
VERTEX
8
0
100
AcDb3dPolylineVertex
10
6.3233713779
20
8.78421464238
30
-0.11026824403
0
VERTEX
8
0
100
AcDb3dPolylineVertex
10
7.50546362915
20
8.91469003097
30
-0.120038296768
0
SEQEND
0
POLYLINE
8
1
70
64
66
1
10
0
20
0
30
0
71
8
72
6
0
VERTEX
8
1
10
7.50546362915
20
8.91469003097
30
-0.120038296768
70
192
0
VERTEX
8
1
10
6.3233713779
20
8.78421464238
30
-0.11026824403
70
192
0
VERTEX
8
1
10
6.31433938056
20
10.1760782378
30
-1.05991167727
70
192
0
VERTEX
8
1
10
5.95129502207
20
10.4363085181
30
-1.24301230359
70
192
0
VERTEX
8
1
10
5.94294689382
20
11.5938678558
30
-2.19566558143
70
192
0
VERTEX
8
1
10
7.45508345509
20
12.537525148
30
-2.7682287669
70
192
0
VERTEX
8
1
10
5.61927259214
20
11.8505311639
30
-2.37915816152
70
192
0
VERTEX
8
1
10
5.61969567082
20
12.4960471795
30
-2.75630141709
70
192
0
VERTEX
8
1
10
0
20
0
30
0
70
128
71
3
72
2
73
1
0
VERTEX
8
1
10
0
20
0
30
0
70
128
71
1
72
6
73
3
0
VERTEX
8
1
10
0
20
0
30
0
70
128
71
6
72
5
73
3
0
VERTEX
8
1
10
0
20
0
30
0
70
128
71
8
72
5
73
6
0
VERTEX
8
1
10
0
20
0
30
0
70
128
71
7
72
5
73
8
0
VERTEX
8
1
10
0
20
0
30
0
70
128
71
4
72
3
73
5
0
SEQEND
0
POLYLINE
8
0
39
0
100
AcDb3dPolyline
66
1
10
0
20
0
30
0
70
9
0
VERTEX
8
0
100
AcDb3dPolylineVertex
10
6.31433938056
20
10.1760782378
30
-1.05991167727
0
VERTEX
8
0
100
AcDb3dPolylineVertex
10
5.95129502207
20
10.4363085181
30
-1.24301230359
0
VERTEX
8
0
100
AcDb3dPolylineVertex
10
5.96056233538
20
10.4468990377
30
1.04329856093
0
VERTEX
8
0
100
AcDb3dPolylineVertex
10
6.32512987642
20
10.185566339
30
1.22579938132
0
SEQEND
0
POLYLINE
8
1
70
64
66
1
10
0
20
0
30
0
71
4
72
2
0
VERTEX
8
1
10
5.95129502207
20
10.4363085181
30
-1.24301230359
70
192
0
VERTEX
8
1
10
5.96056233538
20
10.4468990377
30
1.04329856093
70
192
0
VERTEX
8
1
10
6.31433938056
20
10.1760782378
30
-1.05991167727
70
192
0
VERTEX
8
1
10
6.32512987642
20
10.185566339
30
1.22579938132
70
192
0
VERTEX
8
1
10
0
20
0
30
0
70
128
71
3
72
1
73
2
0
VERTEX
8
1
10
0
20
0
30
0
70
128
71
3
72
2
73
4
0
SEQEND
0
POLYLINE
8
0
39
0
100
AcDb3dPolyline
66
1
10
0
20
0
30
0
70
9
0
VERTEX
8
0
100
AcDb3dPolylineVertex
10
5.60781579099
20
12.5132196796
30
0.556771421246
0
VERTEX
8
0
100
AcDb3dPolylineVertex
10
5.60885380809
20
11.890200437
30
0.516508251974
0
VERTEX
8
0
100
AcDb3dPolylineVertex
10
5.61927259214
20
11.8505311639
30
-2.37915816152
0
VERTEX
8
0
100
AcDb3dPolylineVertex
10
5.61969567082
20
12.4960471795
30
-2.75630141709
0
SEQEND
0
POLYLINE
8
1
70
64
66
1
10
0
20
0
30
0
71
4
72
2
0
VERTEX
8
1
10
5.60781579099
20
12.5132196796
30
0.556771421246
70
192
0
VERTEX
8
1
10
5.61969567082
20
12.4960471795
30
-2.75630141709
70
192
0
VERTEX
8
1
10
5.60885380809
20
11.890200437
30
0.516508251974
70
192
0
VERTEX
8
1
10
5.61927259214
20
11.8505311639
30
-2.37915816152
70
192
0
VERTEX
8
1
10
0
20
0
30
0
70
128
71
1
72
4
73
2
0
VERTEX
8
1
10
0
20
0
30
0
70
128
71
3
72
4
73
1
0
SEQEND
0
POLYLINE
8
0
39
0
100
AcDb3dPolyline
66
1
10
0
20
0
30
0
70
9
0
VERTEX
8
0
100
AcDb3dPolylineVertex
10
13.1467381719
20
8.52482866908
30
-0.082566950844
0
VERTEX
8
0
100
AcDb3dPolylineVertex
10
13.0726408115
20
9.95841527994
30
-0.0599117039745
0
VERTEX
8
0
100
AcDb3dPolylineVertex
10
10.9657017093
20
9.90387555802
30
-0.113202559932
0
VERTEX
8
0
100
AcDb3dPolylineVertex
10
10.9572461001
20
10.5832112873
30
-0.101804509992
0
VERTEX
8
0
100
AcDb3dPolylineVertex
10
9.01398255281
20
10.5339883295
30
-0.150937054423
0
VERTEX
8
0
100
AcDb3dPolylineVertex
10
9.0508007698
20
8.42220877072
30
-0.186107367117
0
SEQEND
0
POLYLINE
8
1
70
64
66
1
10
0
20
0
30
0
71
6
72
4
0
VERTEX
8
1
10
13.1467381719
20
8.52482866908
30
-0.082566950844
70
192
0
VERTEX
8
1
10
13.0726408115
20
9.95841527994
30
-0.0599117039745
70
192
0
VERTEX
8
1
10
9.0508007698
20
8.42220877072
30
-0.186107367117
70
192
0
VERTEX
8
1
10
10.9657017093
20
9.90387555802
30
-0.113202559932
70
192
0
VERTEX
8
1
10
10.9572461001
20
10.5832112873
30
-0.101804509992
70
192
0
VERTEX
8
1
10
9.01398255281
20
10.5339883295
30
-0.150937054423
70
192
0
VERTEX
8
1
10
0
20
0
30
0
70
128
71
6
72
3
73
4
0
VERTEX
8
1
10
0
20
0
30
0
70
128
71
6
72
4
73
5
0
VERTEX
8
1
10
0
20
0
30
0
70
128
71
4
72
3
73
1
0
VERTEX
8
1
10
0
20
0
30
0
70
128
71
2
72
4
73
1
0
SEQEND
0
POLYLINE
8
0
39
0
100
AcDb3dPolyline
66
1
10
0
20
0
30
0
70
9
0
VERTEX
8
0
100
AcDb3dPolylineVertex
10
8.90660744708
20
8.26597453597
30
2.56719195312
0
VERTEX
8
0
100
AcDb3dPolylineVertex
10
8.90741582282
20
8.24503900449
30
-0.125711824004
0
VERTEX
8
0
100
AcDb3dPolylineVertex
10
10.1225150175
20
8.25380962748
30
-0.134855513646
0
VERTEX
8
0
100
AcDb3dPolylineVertex
10
10.1252729884
20
8.26926672681
30
1.85018598112
0
VERTEX
8
0
100
AcDb3dPolylineVertex
10
10.7111254727
20
8.27353336088
30
1.85064980344
0
VERTEX
8
0
100
AcDb3dPolylineVertex
10
10.6954345795
20
8.25794501219
30
-0.139166787904
0
VERTEX
8
0
100
AcDb3dPolylineVertex
10
11.0048960782
20
8.26017911487
30
-0.141495422433
0
VERTEX
8
0
100
AcDb3dPolylineVertex
10
11.0224605613
20
8.28114179145
30
2.53772059134
0
SEQEND
0
POLYLINE
8
1
70
64
66
1
10
0
20
0
30
0
71
8
72
6
0
VERTEX
8
1
10
11.0224605613
20
8.28114179145
30
2.53772059134
70
192
0
VERTEX
8
1
10
11.0048960782
20
8.26017911487
30
-0.141495422433
70
192
0
VERTEX
8
1
10
10.7111254727
20
8.27353336088
30
1.85064980344
70
192
0
VERTEX
8
1
10
10.6954345795
20
8.25794501219
30
-0.139166787904
70
192
0
VERTEX
8
1
10
10.1252729884
20
8.26926672681
30
1.85018598112
70
192
0
VERTEX
8
1
10
10.1225150175
20
8.25380962748
30
-0.134855513646
70
192
0
VERTEX
8
1
10
8.90660744708
20
8.26597453597
30
2.56719195312
70
192
0
VERTEX
8
1
10
8.90741582282
20
8.24503900449
30
-0.125711824004
70
192
0
VERTEX
8
1
10
0
20
0
30
0
70
128
71
4
72
2
73
3
0
VERTEX
8
1
10
0
20
0
30
0
70
128
71
3
72
2
73
1
0
VERTEX
8
1
10
0
20
0
30
0
70
128
71
5
72
3
73
1
0
VERTEX
8
1
10
0
20
0
30
0
70
128
71
5
72
1
73
7
0
VERTEX
8
1
10
0
20
0
30
0
70
128
71
8
72
5
73
7
0
VERTEX
8
1
10
0
20
0
30
0
70
128
71
8
72
6
73
5
0
SEQEND
0
POLYLINE
8
0
39
0
100
AcDb3dPolyline
66
1
10
0
20
0
30
0
70
9
0
VERTEX
8
0
100
AcDb3dPolylineVertex
10
10.9657017093
20
9.90387555802
30
-0.113202559932
0
VERTEX
8
0
100
AcDb3dPolylineVertex
10
13.0726408115
20
9.95841527994
30
-0.0599117039745
0
VERTEX
8
0
100
AcDb3dPolylineVertex
10
13.0442554619
20
9.93723616208
30
1.49809969691
0
VERTEX
8
0
100
AcDb3dPolylineVertex
10
10.9310491743
20
9.88245505203
30
1.4506699723
0
SEQEND
0
POLYLINE
8
1
70
64
66
1
10
0
20
0
30
0
71
4
72
2
0
VERTEX
8
1
10
13.0442554619
20
9.93723616208
30
1.49809969691
70
192
0
VERTEX
8
1
10
13.0726408115
20
9.95841527994
30
-0.0599117039745
70
192
0
VERTEX
8
1
10
10.9310491743
20
9.88245505203
30
1.4506699723
70
192
0
VERTEX
8
1
10
10.9657017093
20
9.90387555802
30
-0.113202559932
70
192
0
VERTEX
8
1
10
0
20
0
30
0
70
128
71
4
72
2
73
3
0
VERTEX
8
1
10
0
20
0
30
0
70
128
71
2
72
1
73
3
0
SEQEND
0
POLYLINE
8
0
39
0
100
AcDb3dPolyline
66
1
10
0
20
0
30
0
70
9
0
VERTEX
8
0
100
AcDb3dPolylineVertex
10
10.9572461001
20
10.5832112873
30
-0.101804509992
0
VERTEX
8
0
100
AcDb3dPolylineVertex
10
10.9657017093
20
9.90387555802
30
-0.113202559932
0
VERTEX
8
0
100
AcDb3dPolylineVertex
10
10.9310491743
20
9.88245505203
30
1.4506699723
0
VERTEX
8
0
100
AcDb3dPolylineVertex
10
10.9329910351
20
10.5620830759
30
0.996148894783
0
SEQEND
0
POLYLINE
8
1
70
64
66
1
10
0
20
0
30
0
71
4
72
2
0
VERTEX
8
1
10
10.9657017093
20
9.90387555802
30
-0.113202559932
70
192
0
VERTEX
8
1
10
10.9310491743
20
9.88245505203
30
1.4506699723
70
192
0
VERTEX
8
1
10
10.9572461001
20
10.5832112873
30
-0.101804509992
70
192
0
VERTEX
8
1
10
10.9329910351
20
10.5620830759
30
0.996148894783
70
192
0
VERTEX
8
1
10
0
20
0
30
0
70
128
71
4
72
3
73
1
0
VERTEX
8
1
10
0
20
0
30
0
70
128
71
2
72
4
73
1
0
SEQEND
0
POLYLINE
8
0
39
0
100
AcDb3dPolyline
66
1
10
0
20
0
30
0
70
9
0
VERTEX
8
0
100
AcDb3dPolylineVertex
10
9.01398255281
20
10.5339883295
30
-0.150937054423
0
VERTEX
8
0
100
AcDb3dPolylineVertex
10
10.9572461001
20
10.5832112873
30
-0.101804509992
0
VERTEX
8
0
100
AcDb3dPolylineVertex
10
10.9329910351
20
10.5620830759
30
0.996148894783
0
VERTEX
8
0
100
AcDb3dPolylineVertex
10
8.98781504589
20
10.5127218716
30
0.951778922177
0
SEQEND
0
POLYLINE
8
1
70
64
66
1
10
0
20
0
30
0
71
4
72
2
0
VERTEX
8
1
10
10.9572461001
20
10.5832112873
30
-0.101804509992
70
192
0
VERTEX
8
1
10
10.9329910351
20
10.5620830759
30
0.996148894783
70
192
0
VERTEX
8
1
10
9.01398255281
20
10.5339883295
30
-0.150937054423
70
192
0
VERTEX
8
1
10
8.98781504589
20
10.5127218716
30
0.951778922177
70
192
0
VERTEX
8
1
10
0
20
0
30
0
70
128
71
3
72
2
73
4
0
VERTEX
8
1
10
0
20
0
30
0
70
128
71
3
72
1
73
2
0
SEQEND
0
POLYLINE
8
0
39
0
100
AcDb3dPolyline
66
1
10
0
20
0
30
0
70
9
0
VERTEX
8
0
100
AcDb3dPolylineVertex
10
5.72263466633
20
7.54723246945
30
3.12309487381
0
VERTEX
8
0
100
AcDb3dPolylineVertex
10
5.71775457824
20
6.56210320765
30
3.82086128088
0
VERTEX
8
0
100
AcDb3dPolylineVertex
10
5.72067874019
20
6.73648142893
30
4.11564241355
0
VERTEX
8
0
100
AcDb3dPolylineVertex
10
5.72537873089
20
7.68521501859
30
3.44365494108
0
SEQEND
0
POLYLINE
8
1
70
64
66
1
10
0
20
0
30
0
71
4
72
2
0
VERTEX
8
1
10
5.71775457824
20
6.56210320765
30
3.82086128088
70
192
0
VERTEX
8
1
10
5.72067874019
20
6.73648142893
30
4.11564241355
70
192
0
VERTEX
8
1
10
5.72263466633
20
7.54723246945
30
3.12309487381
70
192
0
VERTEX
8
1
10
5.72537873089
20
7.68521501859
30
3.44365494108
70
192
0
VERTEX
8
1
10
0
20
0
30
0
70
128
71
4
72
3
73
1
0
VERTEX
8
1
10
0
20
0
30
0
70
128
71
4
72
1
73
2
0
SEQEND
0
POLYLINE
8
0
39
0
100
AcDb3dPolyline
66
1
10
0
20
0
30
0
70
9
0
VERTEX
8
0
100
AcDb3dPolylineVertex
10
5.11261435626
20
7.54728227278
30
3.13028083107
0
VERTEX
8
0
100
AcDb3dPolylineVertex
10
5.72263466633
20
7.54723246945
30
3.12309487381
0
VERTEX
8
0
100
AcDb3dPolylineVertex
10
5.72537873089
20
7.68521501859
30
3.44365494108
0
VERTEX
8
0
100
AcDb3dPolylineVertex
10
5.17168893211
20
7.6852601474
30
3.45017733261
0
SEQEND
0
POLYLINE
8
1
70
64
66
1
10
0
20
0
30
0
71
4
72
2
0
VERTEX
8
1
10
5.72537873089
20
7.68521501859
30
3.44365494108
70
192
0
VERTEX
8
1
10
5.72263466633
20
7.54723246945
30
3.12309487381
70
192
0
VERTEX
8
1
10
5.17168893211
20
7.6852601474
30
3.45017733261
70
192
0
VERTEX
8
1
10
5.11261435626
20
7.54728227278
30
3.13028083107
70
192
0
VERTEX
8
1
10
0
20
0
30
0
70
128
71
4
72
2
73
3
0
VERTEX
8
1
10
0
20
0
30
0
70
128
71
2
72
1
73
3
0
SEQEND
0
POLYLINE
8
0
39
0
100
AcDb3dPolyline
66
1
10
0
20
0
30
0
70
9
0
VERTEX
8
0
100
AcDb3dPolylineVertex
10
6.64645239801
20
12.2033179122
30
-0.210997223333
0
VERTEX
8
0
100
AcDb3dPolylineVertex
10
7.47194393068
20
12.2169810346
30
-0.228000137451
0
VERTEX
8
0
100
AcDb3dPolylineVertex
10
7.49552924022
20
10.5074683707
30
0.986693064657
0
VERTEX
8
0
100
AcDb3dPolylineVertex
10
8.26289980883
20
10.5152110205
30
0.974411425641
0
VERTEX
8
0
100
AcDb3dPolylineVertex
10
8.27533201642
20
9.23688564437
30
1.88277045013
0
VERTEX
8
0
100
AcDb3dPolylineVertex
10
8.89371051138
20
9.24457530148
30
1.87184254065
0
VERTEX
8
0
100
AcDb3dPolylineVertex
10
8.90660744708
20
8.26597453597
30
2.56719195312
0
VERTEX
8
0
100
AcDb3dPolylineVertex
10
11.0224605613
20
8.28114179145
30
2.53772059134
0
VERTEX
8
0
100
AcDb3dPolylineVertex
10
11.033436129
20
7.84605285709
30
2.8468289353
0
VERTEX
8
0
100
AcDb3dPolylineVertex
10
5.32008343729
20
7.88162919091
30
2.87202030029
0
VERTEX
8
0
100
AcDb3dPolylineVertex
10
5.87942740824
20
8.08664974415
30
2.72137651994
0
VERTEX
8
0
100
AcDb3dPolylineVertex
10
6.10877283237
20
8.34992748871
30
2.5322464191
0
VERTEX
8
0
100
AcDb3dPolylineVertex
10
6.3378847936
20
8.80469152952
30
2.20703467787
0
VERTEX
8
0
100
AcDb3dPolylineVertex
10
6.32512987642
20
10.185566339
30
1.22579938132
0
VERTEX
8
0
100
AcDb3dPolylineVertex
10
5.96056233538
20
10.4468990377
30
1.04329856093
0
VERTEX
8
0
100
AcDb3dPolylineVertex
10
5.95284622827
20
11.5892555005
30
0.231526761997
0
SEQEND
0
POLYLINE
8
1
70
64
66
1
10
0
20
0
30
0
71
16
72
14
0
VERTEX
8
1
10
6.64645239801
20
12.2033179122
30
-0.210997223333
70
192
0
VERTEX
8
1
10
5.95284622827
20
11.5892555005
30
0.231526761997
70
192
0
VERTEX
8
1
10
7.47194393068
20
12.2169810346
30
-0.228000137451
70
192
0
VERTEX
8
1
10
5.96056233538
20
10.4468990377
30
1.04329856093
70
192
0
VERTEX
8
1
10
6.32512987642
20
10.185566339
30
1.22579938132
70
192
0
VERTEX
8
1
10
7.49552924022
20
10.5074683707
30
0.986693064657
70
192
0
VERTEX
8
1
10
8.26289980883
20
10.5152110205
30
0.974411425641
70
192
0
VERTEX
8
1
10
6.3378847936
20
8.80469152952
30
2.20703467787
70
192
0
VERTEX
8
1
10
6.10877283237
20
8.34992748871
30
2.5322464191
70
192
0
VERTEX
8
1
10
5.32008343729
20
7.88162919091
30
2.87202030029
70
192
0
VERTEX
8
1
10
5.87942740824
20
8.08664974415
30
2.72137651994
70
192
0
VERTEX
8
1
10
8.27533201642
20
9.23688564437
30
1.88277045013
70
192
0
VERTEX
8
1
10
8.89371051138
20
9.24457530148
30
1.87184254065
70
192
0
VERTEX
8
1
10
8.90660744708
20
8.26597453597
30
2.56719195312
70
192
0
VERTEX
8
1
10
11.0224605613
20
8.28114179145
30
2.53772059134
70
192
0
VERTEX
8
1
10
11.033436129
20
7.84605285709
30
2.8468289353
70
192
0
VERTEX
8
1
10
0
20
0
30
0
70
128
71
10
72
14
73
16
0
VERTEX
8
1
10
0
20
0
30
0
70
128
71
10
72
11
73
14
0
VERTEX
8
1
10
0
20
0
30
0
70
128
71
11
72
9
73
14
0
VERTEX
8
1
10
0
20
0
30
0
70
128
71
9
72
8
73
14
0
VERTEX
8
1
10
0
20
0
30
0
70
128
71
14
72
8
73
12
0
VERTEX
8
1
10
0
20
0
30
0
70
128
71
14
72
12
73
13
0
VERTEX
8
1
10
0
20
0
30
0
70
128
71
8
72
5
73
12
0
VERTEX
8
1
10
0
20
0
30
0
70
128
71
12
72
5
73
6
0
VERTEX
8
1
10
0
20
0
30
0
70
128
71
12
72
6
73
7
0
VERTEX
8
1
10
0
20
0
30
0
70
128
71
6
72
5
73
4
0
VERTEX
8
1
10
0
20
0
30
0
70
128
71
6
72
4
73
2
0
VERTEX
8
1
10
0
20
0
30
0
70
128
71
6
72
2
73
1
0
VERTEX
8
1
10
0
20
0
30
0
70
128
71
6
72
1
73
3
0
VERTEX
8
1
10
0
20
0
30
0
70
128
71
16
72
14
73
15
0
SEQEND
0
POLYLINE
8
0
39
0
100
AcDb3dPolyline
66
1
10
0
20
0
30
0
70
9
0
VERTEX
8
0
100
AcDb3dPolylineVertex
10
6.3378847936
20
8.80469152952
30
2.20703467787
0
VERTEX
8
0
100
AcDb3dPolylineVertex
10
6.3233713779
20
8.78421464238
30
-0.11026824403
0
VERTEX
8
0
100
AcDb3dPolylineVertex
10
6.31433938056
20
10.1760782378
30
-1.05991167727
0
VERTEX
8
0
100
AcDb3dPolylineVertex
10
6.32512987642
20
10.185566339
30
1.22579938132
0
SEQEND
0
POLYLINE
8
1
70
64
66
1
10
0
20
0
30
0
71
4
72
2
0
VERTEX
8
1
10
6.32512987642
20
10.185566339
30
1.22579938132
70
192
0
VERTEX
8
1
10
6.31433938056
20
10.1760782378
30
-1.05991167727
70
192
0
VERTEX
8
1
10
6.3378847936
20
8.80469152952
30
2.20703467787
70
192
0
VERTEX
8
1
10
6.3233713779
20
8.78421464238
30
-0.11026824403
70
192
0
VERTEX
8
1
10
0
20
0
30
0
70
128
71
4
72
2
73
1
0
VERTEX
8
1
10
0
20
0
30
0
70
128
71
4
72
1
73
3
0
SEQEND
0
POLYLINE
8
0
39
0
100
AcDb3dPolyline
66
1
10
0
20
0
30
0
70
9
0
VERTEX
8
0
100
AcDb3dPolylineVertex
10
8.87688238581
20
10.5214152497
30
0.965969454306
0
VERTEX
8
0
100
AcDb3dPolylineVertex
10
8.89371051138
20
9.24457530148
30
1.87184254065
0
VERTEX
8
0
100
AcDb3dPolylineVertex
10
8.88711284859
20
9.74006435982
30
1.86531884947
0
VERTEX
8
0
100
AcDb3dPolylineVertex
10
8.87474579154
20
10.6784013004
30
1.19908772454
0
SEQEND
0
POLYLINE
8
1
70
64
66
1
10
0
20
0
30
0
71
4
72
2
0
VERTEX
8
1
10
8.89371051138
20
9.24457530148
30
1.87184254065
70
192
0
VERTEX
8
1
10
8.88711284859
20
9.74006435982
30
1.86531884947
70
192
0
VERTEX
8
1
10
8.87688238581
20
10.5214152497
30
0.965969454306
70
192
0
VERTEX
8
1
10
8.87474579154
20
10.6784013004
30
1.19908772454
70
192
0
VERTEX
8
1
10
0
20
0
30
0
70
128
71
4
72
3
73
2
0
VERTEX
8
1
10
0
20
0
30
0
70
128
71
2
72
3
73
1
0
SEQEND
0
POLYLINE
8
0
39
0
100
AcDb3dPolyline
66
1
10
0
20
0
30
0
70
9
0
VERTEX
8
0
100
AcDb3dPolylineVertex
10
8.26288026793
20
10.5171831407
30
0.973009889355
0
VERTEX
8
0
100
AcDb3dPolylineVertex
10
8.87688238581
20
10.5214152497
30
0.965969454306
0
VERTEX
8
0
100
AcDb3dPolylineVertex
10
8.87474579154
20
10.6784013004
30
1.19908772454
0
VERTEX
8
0
100
AcDb3dPolylineVertex
10
8.27296206358
20
10.6745653496
30
1.20645164075
0
SEQEND
0
POLYLINE
8
1
70
64
66
1
10
0
20
0
30
0
71
4
72
2
0
VERTEX
8
1
10
8.87688238581
20
10.5214152497
30
0.965969454306
70
192
0
VERTEX
8
1
10
8.26288026793
20
10.5171831407
30
0.973009889355
70
192
0
VERTEX
8
1
10
8.87474579154
20
10.6784013004
30
1.19908772454
70
192
0
VERTEX
8
1
10
8.27296206358
20
10.6745653496
30
1.20645164075
70
192
0
VERTEX
8
1
10
0
20
0
30
0
70
128
71
4
72
2
73
1
0
VERTEX
8
1
10
0
20
0
30
0
70
128
71
3
72
4
73
1
0
SEQEND
0
POLYLINE
8
0
39
0
100
AcDb3dPolyline
66
1
10
0
20
0
30
0
70
9
0
VERTEX
8
0
100
AcDb3dPolylineVertex
10
8.27533201642
20
9.23688564437
30
1.88277045013
0
VERTEX
8
0
100
AcDb3dPolylineVertex
10
8.26288026793
20
10.5171831407
30
0.973009889355
0
VERTEX
8
0
100
AcDb3dPolylineVertex
10
8.27296206358
20
10.6745653496
30
1.20645164075
0
VERTEX
8
0
100
AcDb3dPolylineVertex
10
8.28211675561
20
9.73155920901
30
1.87602343107
0
SEQEND
0
POLYLINE
8
1
70
64
66
1
10
0
20
0
30
0
71
4
72
2
0
VERTEX
8
1
10
8.27296206358
20
10.6745653496
30
1.20645164075
70
192
0
VERTEX
8
1
10
8.26288026793
20
10.5171831407
30
0.973009889355
70
192
0
VERTEX
8
1
10
8.28211675561
20
9.73155920901
30
1.87602343107
70
192
0
VERTEX
8
1
10
8.27533201642
20
9.23688564437
30
1.88277045013
70
192
0
VERTEX
8
1
10
0
20
0
30
0
70
128
71
4
72
2
73
3
0
VERTEX
8
1
10
0
20
0
30
0
70
128
71
2
72
1
73
3
0
SEQEND
0
POLYLINE
8
0
39
0
100
AcDb3dPolyline
66
1
10
0
20
0
30
0
70
9
0
VERTEX
8
0
100
AcDb3dPolylineVertex
10
8.89371051138
20
9.24457530148
30
1.87184254065
0
VERTEX
8
0
100
AcDb3dPolylineVertex
10
8.27533201642
20
9.23688564437
30
1.88277045013
0
VERTEX
8
0
100
AcDb3dPolylineVertex
10
8.28211675561
20
9.73155920901
30
1.87602343107
0
VERTEX
8
0
100
AcDb3dPolylineVertex
10
8.88711284859
20
9.74006435982
30
1.86531884947
0
SEQEND
0
POLYLINE
8
1
70
64
66
1
10
0
20
0
30
0
71
4
72
2
0
VERTEX
8
1
10
8.27533201642
20
9.23688564437
30
1.88277045013
70
192
0
VERTEX
8
1
10
8.28211675561
20
9.73155920901
30
1.87602343107
70
192
0
VERTEX
8
1
10
8.89371051138
20
9.24457530148
30
1.87184254065
70
192
0
VERTEX
8
1
10
8.88711284859
20
9.74006435982
30
1.86531884947
70
192
0
VERTEX
8
1
10
0
20
0
30
0
70
128
71
4
72
3
73
2
0
VERTEX
8
1
10
0
20
0
30
0
70
128
71
3
72
1
73
2
0
SEQEND
0
POLYLINE
8
0
39
0
100
AcDb3dPolyline
66
1
10
0
20
0
30
0
70
9
0
VERTEX
8
0
100
AcDb3dPolylineVertex
10
8.28211675561
20
9.73155920901
30
1.87602343107
0
VERTEX
8
0
100
AcDb3dPolylineVertex
10
8.27296206358
20
10.6745653496
30
1.20645164075
0
VERTEX
8
0
100
AcDb3dPolylineVertex
10
8.87474579154
20
10.6784013004
30
1.19908772454
0
VERTEX
8
0
100
AcDb3dPolylineVertex
10
8.88711284859
20
9.74006435982
30
1.86531884947
0
SEQEND
0
POLYLINE
8
1
70
64
66
1
10
0
20
0
30
0
71
4
72
2
0
VERTEX
8
1
10
8.27296206358
20
10.6745653496
30
1.20645164075
70
192
0
VERTEX
8
1
10
8.87474579154
20
10.6784013004
30
1.19908772454
70
192
0
VERTEX
8
1
10
8.28211675561
20
9.73155920901
30
1.87602343107
70
192
0
VERTEX
8
1
10
8.88711284859
20
9.74006435982
30
1.86531884947
70
192
0
VERTEX
8
1
10
0
20
0
30
0
70
128
71
4
72
3
73
1
0
VERTEX
8
1
10
0
20
0
30
0
70
128
71
4
72
1
73
2
0
SEQEND
0
POLYLINE
8
0
39
0
100
AcDb3dPolyline
66
1
10
0
20
0
30
0
70
9
0
VERTEX
8
0
100
AcDb3dPolylineVertex
10
5.10305352294
20
6.56222750811
30
3.82804996851
0
VERTEX
8
0
100
AcDb3dPolylineVertex
10
5.11261435626
20
7.54728227278
30
3.13028083107
0
VERTEX
8
0
100
AcDb3dPolylineVertex
10
5.17168893211
20
7.6852601474
30
3.45017733261
0
VERTEX
8
0
100
AcDb3dPolylineVertex
10
5.16248153845
20
6.73659454715
30
4.12217026496
0
SEQEND
0
POLYLINE
8
1
70
64
66
1
10
0
20
0
30
0
71
4
72
2
0
VERTEX
8
1
10
5.17168893211
20
7.6852601474
30
3.45017733261
70
192
0
VERTEX
8
1
10
5.11261435626
20
7.54728227278
30
3.13028083107
70
192
0
VERTEX
8
1
10
5.16248153845
20
6.73659454715
30
4.12217026496
70
192
0
VERTEX
8
1
10
5.10305352294
20
6.56222750811
30
3.82804996851
70
192
0
VERTEX
8
1
10
0
20
0
30
0
70
128
71
2
72
1
73
4
0
VERTEX
8
1
10
0
20
0
30
0
70
128
71
4
72
1
73
3
0
SEQEND
0
POLYLINE
8
0
39
0
100
AcDb3dPolyline
66
1
10
0
20
0
30
0
70
9
0
VERTEX
8
0
100
AcDb3dPolylineVertex
10
5.95129502207
20
10.4363085181
30
-1.24301230359
0
VERTEX
8
0
100
AcDb3dPolylineVertex
10
5.94294689382
20
11.5938678558
30
-2.19566558143
0
VERTEX
8
0
100
AcDb3dPolylineVertex
10
5.95284622827
20
11.5892555005
30
0.231526761997
0
VERTEX
8
0
100
AcDb3dPolylineVertex
10
5.96056233538
20
10.4468990377
30
1.04329856093
0
SEQEND
0
POLYLINE
8
1
70
64
66
1
10
0
20
0
30
0
71
4
72
2
0
VERTEX
8
1
10
5.95284622827
20
11.5892555005
30
0.231526761997
70
192
0
VERTEX
8
1
10
5.94294689382
20
11.5938678558
30
-2.19566558143
70
192
0
VERTEX
8
1
10
5.96056233538
20
10.4468990377
30
1.04329856093
70
192
0
VERTEX
8
1
10
5.95129502207
20
10.4363085181
30
-1.24301230359
70
192
0
VERTEX
8
1
10
0
20
0
30
0
70
128
71
4
72
2
73
1
0
VERTEX
8
1
10
0
20
0
30
0
70
128
71
4
72
1
73
3
0
SEQEND
0
POLYLINE
8
0
39
0
100
AcDb3dPolyline
66
1
10
0
20
0
30
0
70
9
0
VERTEX
8
0
100
AcDb3dPolylineVertex
10
5.94294689382
20
11.5938678558
30
-2.19566558143
0
VERTEX
8
0
100
AcDb3dPolylineVertex
10
5.61927259214
20
11.8505311639
30
-2.37915816152
0
VERTEX
8
0
100
AcDb3dPolylineVertex
10
5.60885380809
20
11.890200437
30
0.516508251974
0
VERTEX
8
0
100
AcDb3dPolylineVertex
10
5.95284622827
20
11.5892555005
30
0.231526761997
0
SEQEND
0
POLYLINE
8
1
70
64
66
1
10
0
20
0
30
0
71
4
72
2
0
VERTEX
8
1
10
5.60885380809
20
11.890200437
30
0.516508251974
70
192
0
VERTEX
8
1
10
5.61927259214
20
11.8505311639
30
-2.37915816152
70
192
0
VERTEX
8
1
10
5.94294689382
20
11.5938678558
30
-2.19566558143
70
192
0
VERTEX
8
1
10
5.95284622827
20
11.5892555005
30
0.231526761997
70
192
0
VERTEX
8
1
10
0
20
0
30
0
70
128
71
4
72
3
73
2
0
VERTEX
8
1
10
0
20
0
30
0
70
128
71
1
72
4
73
2
0
SEQEND
0
POLYLINE
8
0
39
0
100
AcDb3dPolyline
66
1
10
0
20
0
30
0
70
9
0
VERTEX
8
0
100
AcDb3dPolylineVertex
10
5.71775457824
20
6.56210320765
30
3.82086128088
0
VERTEX
8
0
100
AcDb3dPolylineVertex
10
5.10305352294
20
6.56222750811
30
3.82804996851
0
VERTEX
8
0
100
AcDb3dPolylineVertex
10
5.16248153845
20
6.73659454715
30
4.12217026496
0
VERTEX
8
0
100
AcDb3dPolylineVertex
10
5.72067874019
20
6.73648142893
30
4.11564241355
0
SEQEND
0
POLYLINE
8
1
70
64
66
1
10
0
20
0
30
0
71
4
72
2
0
VERTEX
8
1
10
5.16248153845
20
6.73659454715
30
4.12217026496
70
192
0
VERTEX
8
1
10
5.72067874019
20
6.73648142893
30
4.11564241355
70
192
0
VERTEX
8
1
10
5.10305352294
20
6.56222750811
30
3.82804996851
70
192
0
VERTEX
8
1
10
5.71775457824
20
6.56210320765
30
3.82086128088
70
192
0
VERTEX
8
1
10
0
20
0
30
0
70
128
71
3
72
1
73
4
0
VERTEX
8
1
10
0
20
0
30
0
70
128
71
4
72
1
73
2
0
SEQEND
0
POLYLINE
8
0
39
0
100
AcDb3dPolyline
66
1
10
0
20
0
30
0
70
9
0
VERTEX
8
0
100
AcDb3dPolylineVertex
10
5.16248153845
20
6.73659454715
30
4.12217026496
0
VERTEX
8
0
100
AcDb3dPolylineVertex
10
5.17168893211
20
7.6852601474
30
3.45017733261
0
VERTEX
8
0
100
AcDb3dPolylineVertex
10
5.72537873089
20
7.68521501859
30
3.44365494108
0
VERTEX
8
0
100
AcDb3dPolylineVertex
10
5.72067874019
20
6.73648142893
30
4.11564241355
0
SEQEND
0
POLYLINE
8
1
70
64
66
1
10
0
20
0
30
0
71
4
72
2
0
VERTEX
8
1
10
5.17168893211
20
7.6852601474
30
3.45017733261
70
192
0
VERTEX
8
1
10
5.72537873089
20
7.68521501859
30
3.44365494108
70
192
0
VERTEX
8
1
10
5.16248153845
20
6.73659454715
30
4.12217026496
70
192
0
VERTEX
8
1
10
5.72067874019
20
6.73648142893
30
4.11564241355
70
192
0
VERTEX
8
1
10
0
20
0
30
0
70
128
71
4
72
3
73
1
0
VERTEX
8
1
10
0
20
0
30
0
70
128
71
4
72
1
73
2
0
SEQEND
0
POLYLINE
8
0
39
0
100
AcDb3dPolyline
66
1
10
0
20
0
30
0
70
9
0
VERTEX
8
0
100
AcDb3dPolylineVertex
10
6.49341384691
20
7.54943817966
30
3.11240828162
0
VERTEX
8
0
100
AcDb3dPolylineVertex
10
6.49577831695
20
6.55798676195
30
3.81456674498
0
VERTEX
8
0
100
AcDb3dPolylineVertex
10
6.48888298083
20
6.72831570956
30
4.09199049418
0
VERTEX
8
0
100
AcDb3dPolylineVertex
10
6.48662334491
20
7.67579504949
30
3.42097357781
0
SEQEND
0
POLYLINE
8
1
70
64
66
1
10
0
20
0
30
0
71
4
72
2
0
VERTEX
8
1
10
6.49577831695
20
6.55798676195
30
3.81456674498
70
192
0
VERTEX
8
1
10
6.48888298083
20
6.72831570956
30
4.09199049418
70
192
0
VERTEX
8
1
10
6.49341384691
20
7.54943817966
30
3.11240828162
70
192
0
VERTEX
8
1
10
6.48662334491
20
7.67579504949
30
3.42097357781
70
192
0
VERTEX
8
1
10
0
20
0
30
0
70
128
71
4
72
3
73
1
0
VERTEX
8
1
10
0
20
0
30
0
70
128
71
4
72
1
73
2
0
SEQEND
0
POLYLINE
8
0
39
0
100
AcDb3dPolyline
66
1
10
0
20
0
30
0
70
9
0
VERTEX
8
0
100
AcDb3dPolylineVertex
10
5.8884203226
20
7.55142535202
30
3.11816264304
0
VERTEX
8
0
100
AcDb3dPolylineVertex
10
6.49341384691
20
7.54943817966
30
3.11240828162
0
VERTEX
8
0
100
AcDb3dPolylineVertex
10
6.48662334491
20
7.67579504949
30
3.42097357781
0
VERTEX
8
0
100
AcDb3dPolylineVertex
10
5.90900804996
20
7.67769221812
30
3.42646748416
0
SEQEND
0
POLYLINE
8
1
70
64
66
1
10
0
20
0
30
0
71
4
72
2
0
VERTEX
8
1
10
6.48662334491
20
7.67579504949
30
3.42097357781
70
192
0
VERTEX
8
1
10
6.49341384691
20
7.54943817966
30
3.11240828162
70
192
0
VERTEX
8
1
10
5.90900804996
20
7.67769221812
30
3.42646748416
70
192
0
VERTEX
8
1
10
5.8884203226
20
7.55142535202
30
3.11816264304
70
192
0
VERTEX
8
1
10
0
20
0
30
0
70
128
71
3
72
4
73
2
0
VERTEX
8
1
10
0
20
0
30
0
70
128
71
3
72
2
73
1
0
SEQEND
0
POLYLINE
8
0
39
0
100
AcDb3dPolyline
66
1
10
0
20
0
30
0
70
9
0
VERTEX
8
0
100
AcDb3dPolylineVertex
10
5.89071425655
20
6.55955187698
30
3.82062083496
0
VERTEX
8
0
100
AcDb3dPolylineVertex
10
5.8884203226
20
7.55142535202
30
3.11816264304
0
VERTEX
8
0
100
AcDb3dPolylineVertex
10
5.90900804996
20
7.67769221812
30
3.42646748416
0
VERTEX
8
0
100
AcDb3dPolylineVertex
10
5.91120029264
20
6.72981001096
30
4.09777061212
0
SEQEND
0
POLYLINE
8
1
70
64
66
1
10
0
20
0
30
0
71
4
72
2
0
VERTEX
8
1
10
5.90900804996
20
7.67769221812
30
3.42646748416
70
192
0
VERTEX
8
1
10
5.8884203226
20
7.55142535202
30
3.11816264304
70
192
0
VERTEX
8
1
10
5.91120029264
20
6.72981001096
30
4.09777061212
70
192
0
VERTEX
8
1
10
5.89071425655
20
6.55955187698
30
3.82062083496
70
192
0
VERTEX
8
1
10
0
20
0
30
0
70
128
71
2
72
1
73
4
0
VERTEX
8
1
10
0
20
0
30
0
70
128
71
4
72
1
73
3
0
SEQEND
0
POLYLINE
8
0
39
0
100
AcDb3dPolyline
66
1
10
0
20
0
30
0
70
9
0
VERTEX
8
0
100
AcDb3dPolylineVertex
10
6.49577831695
20
6.55798676195
30
3.81456674498
0
VERTEX
8
0
100
AcDb3dPolylineVertex
10
5.89071425655
20
6.55955187698
30
3.82062083496
0
VERTEX
8
0
100
AcDb3dPolylineVertex
10
5.91120029264
20
6.72981001096
30
4.09777061212
0
VERTEX
8
0
100
AcDb3dPolylineVertex
10
6.48888298083
20
6.72831570956
30
4.09199049418
0
SEQEND
0
POLYLINE
8
1
70
64
66
1
10
0
20
0
30
0
71
4
72
2
0
VERTEX
8
1
10
5.91120029264
20
6.72981001096
30
4.09777061212
70
192
0
VERTEX
8
1
10
6.48888298083
20
6.72831570956
30
4.09199049418
70
192
0
VERTEX
8
1
10
5.89071425655
20
6.55955187698
30
3.82062083496
70
192
0
VERTEX
8
1
10
6.49577831695
20
6.55798676195
30
3.81456674498
70
192
0
VERTEX
8
1
10
0
20
0
30
0
70
128
71
4
72
3
73
2
0
VERTEX
8
1
10
0
20
0
30
0
70
128
71
2
72
3
73
1
0
SEQEND
0
POLYLINE
8
0
39
0
100
AcDb3dPolyline
66
1
10
0
20
0
30
0
70
9
0
VERTEX
8
0
100
AcDb3dPolylineVertex
10
5.91120029264
20
6.72981001096
30
4.09777061212
0
VERTEX
8
0
100
AcDb3dPolylineVertex
10
5.90900804996
20
7.67769221812
30
3.42646748416
0
VERTEX
8
0
100
AcDb3dPolylineVertex
10
6.48662334491
20
7.67579504949
30
3.42097357781
0
VERTEX
8
0
100
AcDb3dPolylineVertex
10
6.48888298083
20
6.72831570956
30
4.09199049418
0
SEQEND
0
POLYLINE
8
1
70
64
66
1
10
0
20
0
30
0
71
4
72
2
0
VERTEX
8
1
10
5.90900804996
20
7.67769221812
30
3.42646748416
70
192
0
VERTEX
8
1
10
6.48662334491
20
7.67579504949
30
3.42097357781
70
192
0
VERTEX
8
1
10
5.91120029264
20
6.72981001096
30
4.09777061212
70
192
0
VERTEX
8
1
10
6.48888298083
20
6.72831570956
30
4.09199049418
70
192
0
VERTEX
8
1
10
0
20
0
30
0
70
128
71
4
72
3
73
2
0
VERTEX
8
1
10
0
20
0
30
0
70
128
71
3
72
1
73
2
0
SEQEND
0
POLYLINE
8
0
39
0
100
AcDb3dPolyline
66
1
10
0
20
0
30
0
70
9
0
VERTEX
8
0
100
AcDb3dPolylineVertex
10
7.23757413829
20
7.54647463124
30
3.1056980693
0
VERTEX
8
0
100
AcDb3dPolylineVertex
10
7.24369709842
20
6.55322097426
30
3.80908843188
0
VERTEX
8
0
100
AcDb3dPolylineVertex
10
7.24843305833
20
6.72173290614
30
4.08227756193
0
VERTEX
8
0
100
AcDb3dPolylineVertex
10
7.24257288059
20
7.67234588873
30
3.40908398534
0
SEQEND
0
POLYLINE
8
1
70
64
66
1
10
0
20
0
30
0
71
4
72
2
0
VERTEX
8
1
10
7.24369709842
20
6.55322097426
30
3.80908843188
70
192
0
VERTEX
8
1
10
7.24843305833
20
6.72173290614
30
4.08227756193
70
192
0
VERTEX
8
1
10
7.23757413829
20
7.54647463124
30
3.1056980693
70
192
0
VERTEX
8
1
10
7.24257288059
20
7.67234588873
30
3.40908398534
70
192
0
VERTEX
8
1
10
0
20
0
30
0
70
128
71
4
72
3
73
1
0
VERTEX
8
1
10
0
20
0
30
0
70
128
71
4
72
1
73
2
0
SEQEND
0
POLYLINE
8
0
39
0
100
AcDb3dPolyline
66
1
10
0
20
0
30
0
70
9
0
VERTEX
8
0
100
AcDb3dPolylineVertex
10
6.6527950745
20
7.54804931928
30
3.1115053952
0
VERTEX
8
0
100
AcDb3dPolylineVertex
10
7.23757413829
20
7.54647463124
30
3.1056980693
0
VERTEX
8
0
100
AcDb3dPolylineVertex
10
7.24257288059
20
7.67234588873
30
3.40908398534
0
VERTEX
8
0
100
AcDb3dPolylineVertex
10
6.66119201835
20
7.67391134607
30
3.41485750022
0
SEQEND
0
POLYLINE
8
1
70
64
66
1
10
0
20
0
30
0
71
4
72
2
0
VERTEX
8
1
10
7.24257288059
20
7.67234588873
30
3.40908398534
70
192
0
VERTEX
8
1
10
7.23757413829
20
7.54647463124
30
3.1056980693
70
192
0
VERTEX
8
1
10
6.66119201835
20
7.67391134607
30
3.41485750022
70
192
0
VERTEX
8
1
10
6.6527950745
20
7.54804931928
30
3.1115053952
70
192
0
VERTEX
8
1
10
0
20
0
30
0
70
128
71
4
72
2
73
3
0
VERTEX
8
1
10
0
20
0
30
0
70
128
71
2
72
1
73
3
0
SEQEND
0
POLYLINE
8
0
39
0
100
AcDb3dPolyline
66
1
10
0
20
0
30
0
70
9
0
VERTEX
8
0
100
AcDb3dPolylineVertex
10
6.66097655655
20
6.55574762767
30
3.81419711405
0
VERTEX
8
0
100
AcDb3dPolylineVertex
10
6.6527950745
20
7.54804931928
30
3.1115053952
0
VERTEX
8
0
100
AcDb3dPolylineVertex
10
6.66119201835
20
7.67391134607
30
3.41485750022
0
VERTEX
8
0
100
AcDb3dPolylineVertex
10
6.6690220978
20
6.7242452791
30
4.08735730578
0
SEQEND
0
POLYLINE
8
1
70
64
66
1
10
0
20
0
30
0
71
4
72
2
0
VERTEX
8
1
10
6.66119201835
20
7.67391134607
30
3.41485750022
70
192
0
VERTEX
8
1
10
6.6527950745
20
7.54804931928
30
3.1115053952
70
192
0
VERTEX
8
1
10
6.6690220978
20
6.7242452791
30
4.08735730578
70
192
0
VERTEX
8
1
10
6.66097655655
20
6.55574762767
30
3.81419711405
70
192
0
VERTEX
8
1
10
0
20
0
30
0
70
128
71
2
72
1
73
4
0
VERTEX
8
1
10
0
20
0
30
0
70
128
71
4
72
1
73
3
0
SEQEND
0
POLYLINE
8
0
39
0
100
AcDb3dPolyline
66
1
10
0
20
0
30
0
70
9
0
VERTEX
8
0
100
AcDb3dPolylineVertex
10
7.24369709842
20
6.55322097426
30
3.80908843188
0
VERTEX
8
0
100
AcDb3dPolylineVertex
10
6.66097655655
20
6.55574762767
30
3.81419711405
0
VERTEX
8
0
100
AcDb3dPolylineVertex
10
6.6690220978
20
6.7242452791
30
4.08735730578
0
VERTEX
8
0
100
AcDb3dPolylineVertex
10
7.24843305833
20
6.72173290614
30
4.08227756193
0
SEQEND
0
POLYLINE
8
1
70
64
66
1
10
0
20
0
30
0
71
4
72
2
0
VERTEX
8
1
10
6.6690220978
20
6.7242452791
30
4.08735730578
70
192
0
VERTEX
8
1
10
7.24843305833
20
6.72173290614
30
4.08227756193
70
192
0
VERTEX
8
1
10
6.66097655655
20
6.55574762767
30
3.81419711405
70
192
0
VERTEX
8
1
10
7.24369709842
20
6.55322097426
30
3.80908843188
70
192
0
VERTEX
8
1
10
0
20
0
30
0
70
128
71
3
72
1
73
4
0
VERTEX
8
1
10
0
20
0
30
0
70
128
71
4
72
1
73
2
0
SEQEND
0
POLYLINE
8
0
39
0
100
AcDb3dPolyline
66
1
10
0
20
0
30
0
70
9
0
VERTEX
8
0
100
AcDb3dPolylineVertex
10
6.6690220978
20
6.7242452791
30
4.08735730578
0
VERTEX
8
0
100
AcDb3dPolylineVertex
10
6.66119201835
20
7.67391134607
30
3.41485750022
0
VERTEX
8
0
100
AcDb3dPolylineVertex
10
7.24257288059
20
7.67234588873
30
3.40908398534
0
VERTEX
8
0
100
AcDb3dPolylineVertex
10
7.24843305833
20
6.72173290614
30
4.08227756193
0
SEQEND
0
POLYLINE
8
1
70
64
66
1
10
0
20
0
30
0
71
4
72
2
0
VERTEX
8
1
10
6.66119201835
20
7.67391134607
30
3.41485750022
70
192
0
VERTEX
8
1
10
7.24257288059
20
7.67234588873
30
3.40908398534
70
192
0
VERTEX
8
1
10
6.6690220978
20
6.7242452791
30
4.08735730578
70
192
0
VERTEX
8
1
10
7.24843305833
20
6.72173290614
30
4.08227756193
70
192
0
VERTEX
8
1
10
0
20
0
30
0
70
128
71
4
72
3
73
2
0
VERTEX
8
1
10
0
20
0
30
0
70
128
71
3
72
1
73
2
0
SEQEND
0
POLYLINE
8
0
39
0
100
AcDb3dPolyline
66
1
10
0
20
0
30
0
70
9
0
VERTEX
8
0
100
AcDb3dPolylineVertex
10
7.96220203839
20
7.54859151929
30
3.09562090254
0
VERTEX
8
0
100
AcDb3dPolylineVertex
10
7.97997058554
20
6.55169062877
30
3.80145635162
0
VERTEX
8
0
100
AcDb3dPolylineVertex
10
7.97985760657
20
6.73030254001
30
4.08488244695
0
VERTEX
8
0
100
AcDb3dPolylineVertex
10
7.96297075957
20
7.67775266017
30
3.41405946183
0
SEQEND
0
POLYLINE
8
1
70
64
66
1
10
0
20
0
30
0
71
4
72
2
0
VERTEX
8
1
10
7.97997058554
20
6.55169062877
30
3.80145635162
70
192
0
VERTEX
8
1
10
7.97985760657
20
6.73030254001
30
4.08488244695
70
192
0
VERTEX
8
1
10
7.96220203839
20
7.54859151929
30
3.09562090254
70
192
0
VERTEX
8
1
10
7.96297075957
20
7.67775266017
30
3.41405946183
70
192
0
VERTEX
8
1
10
0
20
0
30
0
70
128
71
4
72
3
73
1
0
VERTEX
8
1
10
0
20
0
30
0
70
128
71
4
72
1
73
2
0
SEQEND
0
POLYLINE
8
0
39
0
100
AcDb3dPolyline
66
1
10
0
20
0
30
0
70
9
0
VERTEX
8
0
100
AcDb3dPolylineVertex
10
7.36896981683
20
7.54762067821
30
3.10333090635
0
VERTEX
8
0
100
AcDb3dPolylineVertex
10
7.96220203839
20
7.54859151929
30
3.09562090254
0
VERTEX
8
0
100
AcDb3dPolylineVertex
10
7.96297075957
20
7.67775266017
30
3.41405946183
0
VERTEX
8
0
100
AcDb3dPolylineVertex
10
7.380744305
20
7.67679984342
30
3.4216266471
0
SEQEND
0
POLYLINE
8
1
70
64
66
1
10
0
20
0
30
0
71
4
72
2
0
VERTEX
8
1
10
7.96297075957
20
7.67775266017
30
3.41405946183
70
192
0
VERTEX
8
1
10
7.96220203839
20
7.54859151929
30
3.09562090254
70
192
0
VERTEX
8
1
10
7.380744305
20
7.67679984342
30
3.4216266471
70
192
0
VERTEX
8
1
10
7.36896981683
20
7.54762067821
30
3.10333090635
70
192
0
VERTEX
8
1
10
0
20
0
30
0
70
128
71
3
72
4
73
2
0
VERTEX
8
1
10
0
20
0
30
0
70
128
71
3
72
2
73
1
0
SEQEND
0
POLYLINE
8
0
39
0
100
AcDb3dPolyline
66
1
10
0
20
0
30
0
70
9
0
VERTEX
8
0
100
AcDb3dPolylineVertex
10
7.38668482191
20
6.54912707492
30
3.81029536983
0
VERTEX
8
0
100
AcDb3dPolylineVertex
10
7.36896981683
20
7.54762067821
30
3.10333090635
0
VERTEX
8
0
100
AcDb3dPolylineVertex
10
7.380744305
20
7.67679984342
30
3.4216266471
0
VERTEX
8
0
100
AcDb3dPolylineVertex
10
7.39758146567
20
6.72778656386
30
4.09355735192
0
SEQEND
0
POLYLINE
8
1
70
64
66
1
10
0
20
0
30
0
71
4
72
2
0
VERTEX
8
1
10
7.380744305
20
7.67679984342
30
3.4216266471
70
192
0
VERTEX
8
1
10
7.36896981683
20
7.54762067821
30
3.10333090635
70
192
0
VERTEX
8
1
10
7.39758146567
20
6.72778656386
30
4.09355735192
70
192
0
VERTEX
8
1
10
7.38668482191
20
6.54912707492
30
3.81029536983
70
192
0
VERTEX
8
1
10
0
20
0
30
0
70
128
71
2
72
1
73
4
0
VERTEX
8
1
10
0
20
0
30
0
70
128
71
4
72
1
73
3
0
SEQEND
0
POLYLINE
8
0
39
0
100
AcDb3dPolyline
66
1
10
0
20
0
30
0
70
9
0
VERTEX
8
0
100
AcDb3dPolylineVertex
10
7.97997058554
20
6.55169062877
30
3.80145635162
0
VERTEX
8
0
100
AcDb3dPolylineVertex
10
7.38668482191
20
6.54912707492
30
3.81029536983
0
VERTEX
8
0
100
AcDb3dPolylineVertex
10
7.39758146567
20
6.72778656386
30
4.09355735192
0
VERTEX
8
0
100
AcDb3dPolylineVertex
10
7.97985760657
20
6.73030254001
30
4.08488244695
0
SEQEND
0
POLYLINE
8
1
70
64
66
1
10
0
20
0
30
0
71
4
72
2
0
VERTEX
8
1
10
7.39758146567
20
6.72778656386
30
4.09355735192
70
192
0
VERTEX
8
1
10
7.97985760657
20
6.73030254001
30
4.08488244695
70
192
0
VERTEX
8
1
10
7.38668482191
20
6.54912707492
30
3.81029536983
70
192
0
VERTEX
8
1
10
7.97997058554
20
6.55169062877
30
3.80145635162
70
192
0
VERTEX
8
1
10
0
20
0
30
0
70
128
71
3
72
1
73
4
0
VERTEX
8
1
10
0
20
0
30
0
70
128
71
4
72
1
73
2
0
SEQEND
0
POLYLINE
8
0
39
0
100
AcDb3dPolyline
66
1
10
0
20
0
30
0
70
9
0
VERTEX
8
0
100
AcDb3dPolylineVertex
10
7.39758146567
20
6.72778656386
30
4.09355735192
0
VERTEX
8
0
100
AcDb3dPolylineVertex
10
7.380744305
20
7.67679984342
30
3.4216266471
0
VERTEX
8
0
100
AcDb3dPolylineVertex
10
7.96297075957
20
7.67775266017
30
3.41405946183
0
VERTEX
8
0
100
AcDb3dPolylineVertex
10
7.97985760657
20
6.73030254001
30
4.08488244695
0
SEQEND
0
POLYLINE
8
1
70
64
66
1
10
0
20
0
30
0
71
4
72
2
0
VERTEX
8
1
10
7.380744305
20
7.67679984342
30
3.4216266471
70
192
0
VERTEX
8
1
10
7.96297075957
20
7.67775266017
30
3.41405946183
70
192
0
VERTEX
8
1
10
7.39758146567
20
6.72778656386
30
4.09355735192
70
192
0
VERTEX
8
1
10
7.97985760657
20
6.73030254001
30
4.08488244695
70
192
0
VERTEX
8
1
10
0
20
0
30
0
70
128
71
4
72
3
73
2
0
VERTEX
8
1
10
0
20
0
30
0
70
128
71
3
72
1
73
2
0
SEQEND
0
POLYLINE
8
0
39
0
100
AcDb3dPolyline
66
1
10
0
20
0
30
0
70
9
0
VERTEX
8
0
100
AcDb3dPolylineVertex
10
8.68815638872
20
7.54330644077
30
3.09077044891
0
VERTEX
8
0
100
AcDb3dPolylineVertex
10
8.69989174588
20
6.55064961525
30
3.79367135889
0
VERTEX
8
0
100
AcDb3dPolylineVertex
10
8.69735829654
20
6.72372158893
30
4.0681382368
0
VERTEX
8
0
100
AcDb3dPolylineVertex
10
8.68614839494
20
7.67195896521
30
3.39669101653
0
SEQEND
0
POLYLINE
8
1
70
64
66
1
10
0
20
0
30
0
71
4
72
2
0
VERTEX
8
1
10
8.69989174588
20
6.55064961525
30
3.79367135889
70
192
0
VERTEX
8
1
10
8.69735829654
20
6.72372158893
30
4.0681382368
70
192
0
VERTEX
8
1
10
8.68815638872
20
7.54330644077
30
3.09077044891
70
192
0
VERTEX
8
1
10
8.68614839494
20
7.67195896521
30
3.39669101653
70
192
0
VERTEX
8
1
10
0
20
0
30
0
70
128
71
4
72
3
73
1
0
VERTEX
8
1
10
0
20
0
30
0
70
128
71
4
72
1
73
2
0
SEQEND
0
POLYLINE
8
0
39
0
100
AcDb3dPolyline
66
1
10
0
20
0
30
0
70
9
0
VERTEX
8
0
100
AcDb3dPolylineVertex
10
8.09786206454
20
7.54604061801
30
3.09582175414
0
VERTEX
8
0
100
AcDb3dPolylineVertex
10
8.68815638872
20
7.54330644077
30
3.09077044891
0
VERTEX
8
0
100
AcDb3dPolylineVertex
10
8.68614839494
20
7.67195896521
30
3.39669101653
0
VERTEX
8
0
100
AcDb3dPolylineVertex
10
8.10722756917
20
7.67464022321
30
3.40164502497
0
SEQEND
0
POLYLINE
8
1
70
64
66
1
10
0
20
0
30
0
71
4
72
2
0
VERTEX
8
1
10
8.68614839494
20
7.67195896521
30
3.39669101653
70
192
0
VERTEX
8
1
10
8.68815638872
20
7.54330644077
30
3.09077044891
70
192
0
VERTEX
8
1
10
8.10722756917
20
7.67464022321
30
3.40164502497
70
192
0
VERTEX
8
1
10
8.09786206454
20
7.54604061801
30
3.09582175414
70
192
0
VERTEX
8
1
10
0
20
0
30
0
70
128
71
3
72
4
73
2
0
VERTEX
8
1
10
0
20
0
30
0
70
128
71
3
72
2
73
1
0
SEQEND
0
POLYLINE
8
0
39
0
100
AcDb3dPolyline
66
1
10
0
20
0
30
0
70
9
0
VERTEX
8
0
100
AcDb3dPolylineVertex
10
8.10527274366
20
6.55237436124
30
3.7994889811
0
VERTEX
8
0
100
AcDb3dPolylineVertex
10
8.09786206454
20
7.54604061801
30
3.09582175414
0
VERTEX
8
0
100
AcDb3dPolylineVertex
10
8.10722756917
20
7.67464022321
30
3.40164502497
0
VERTEX
8
0
100
AcDb3dPolylineVertex
10
8.11430663031
20
6.72541276611
30
4.07384281991
0
SEQEND
0
POLYLINE
8
1
70
64
66
1
10
0
20
0
30
0
71
4
72
2
0
VERTEX
8
1
10
8.10722756917
20
7.67464022321
30
3.40164502497
70
192
0
VERTEX
8
1
10
8.09786206454
20
7.54604061801
30
3.09582175414
70
192
0
VERTEX
8
1
10
8.11430663031
20
6.72541276611
30
4.07384281991
70
192
0
VERTEX
8
1
10
8.10527274366
20
6.55237436124
30
3.7994889811
70
192
0
VERTEX
8
1
10
0
20
0
30
0
70
128
71
2
72
1
73
4
0
VERTEX
8
1
10
0
20
0
30
0
70
128
71
4
72
1
73
3
0
SEQEND
0
POLYLINE
8
0
39
0
100
AcDb3dPolyline
66
1
10
0
20
0
30
0
70
9
0
VERTEX
8
0
100
AcDb3dPolylineVertex
10
8.69989174588
20
6.55064961525
30
3.79367135889
0
VERTEX
8
0
100
AcDb3dPolylineVertex
10
8.10527274366
20
6.55237436124
30
3.7994889811
0
VERTEX
8
0
100
AcDb3dPolylineVertex
10
8.11430663031
20
6.72541276611
30
4.07384281991
0
VERTEX
8
0
100
AcDb3dPolylineVertex
10
8.69735829654
20
6.72372158893
30
4.0681382368
0
SEQEND
0
POLYLINE
8
1
70
64
66
1
10
0
20
0
30
0
71
4
72
2
0
VERTEX
8
1
10
8.11430663031
20
6.72541276611
30
4.07384281991
70
192
0
VERTEX
8
1
10
8.69735829654
20
6.72372158893
30
4.0681382368
70
192
0
VERTEX
8
1
10
8.10527274366
20
6.55237436124
30
3.7994889811
70
192
0
VERTEX
8
1
10
8.69989174588
20
6.55064961525
30
3.79367135889
70
192
0
VERTEX
8
1
10
0
20
0
30
0
70
128
71
3
72
1
73
4
0
VERTEX
8
1
10
0
20
0
30
0
70
128
71
4
72
1
73
2
0
SEQEND
0
POLYLINE
8
0
39
0
100
AcDb3dPolyline
66
1
10
0
20
0
30
0
70
9
0
VERTEX
8
0
100
AcDb3dPolylineVertex
10
8.11430663031
20
6.72541276611
30
4.07384281991
0
VERTEX
8
0
100
AcDb3dPolylineVertex
10
8.10722756917
20
7.67464022321
30
3.40164502497
0
VERTEX
8
0
100
AcDb3dPolylineVertex
10
8.68614839494
20
7.67195896521
30
3.39669101653
0
VERTEX
8
0
100
AcDb3dPolylineVertex
10
8.69735829654
20
6.72372158893
30
4.0681382368
0
SEQEND
0
POLYLINE
8
1
70
64
66
1
10
0
20
0
30
0
71
4
72
2
0
VERTEX
8
1
10
8.10722756917
20
7.67464022321
30
3.40164502497
70
192
0
VERTEX
8
1
10
8.68614839494
20
7.67195896521
30
3.39669101653
70
192
0
VERTEX
8
1
10
8.11430663031
20
6.72541276611
30
4.07384281991
70
192
0
VERTEX
8
1
10
8.69735829654
20
6.72372158893
30
4.0681382368
70
192
0
VERTEX
8
1
10
0
20
0
30
0
70
128
71
4
72
3
73
2
0
VERTEX
8
1
10
0
20
0
30
0
70
128
71
3
72
1
73
2
0
SEQEND
0
POLYLINE
8
0
39
0
100
AcDb3dPolyline
66
1
10
0
20
0
30
0
70
9
0
VERTEX
8
0
100
AcDb3dPolylineVertex
10
10.1814254525
20
10.545038248
30
0.977649493706
0
VERTEX
8
0
100
AcDb3dPolylineVertex
10
10.1772549894
20
9.24259561465
30
1.84867824829
0
VERTEX
8
0
100
AcDb3dPolylineVertex
10
10.7589127466
20
9.24278447724
30
1.87169270889
0
VERTEX
8
0
100
AcDb3dPolylineVertex
10
10.7650523042
20
10.5578209459
30
0.992318289682
0
VERTEX
8
0
100
AcDb3dPolylineVertex
10
10.9329910351
20
10.5620830759
30
0.996148894783
0
VERTEX
8
0
100
AcDb3dPolylineVertex
10
10.9310491743
20
9.88245505203
30
1.4506699723
0
VERTEX
8
0
100
AcDb3dPolylineVertex
10
13.0442554619
20
9.93723616208
30
1.49809969691
0
VERTEX
8
0
100
AcDb3dPolylineVertex
10
13.086941629
20
8.83437109117
30
2.2374961786
0
VERTEX
8
0
100
AcDb3dPolylineVertex
10
8.99214223666
20
8.74285214792
30
2.13580411762
0
VERTEX
8
0
100
AcDb3dPolylineVertex
10
8.98717158963
20
9.20792338565
30
1.82452343049
0
VERTEX
8
0
100
AcDb3dPolylineVertex
10
9.57274987493
20
9.21710092005
30
1.84168176362
0
VERTEX
8
0
100
AcDb3dPolylineVertex
10
9.57584064896
20
10.527643949
30
0.965191878745
0
SEQEND
0
POLYLINE
8
1
70
64
66
1
10
0
20
0
30
0
71
12
72
10
0
VERTEX
8
1
10
9.57584064896
20
10.527643949
30
0.965191878745
70
192
0
VERTEX
8
1
10
10.1814254525
20
10.545038248
30
0.977649493706
70
192
0
VERTEX
8
1
10
10.7650523042
20
10.5578209459
30
0.992318289682
70
192
0
VERTEX
8
1
10
10.9329910351
20
10.5620830759
30
0.996148894783
70
192
0
VERTEX
8
1
10
8.98717158963
20
9.20792338565
30
1.82452343049
70
192
0
VERTEX
8
1
10
9.57274987493
20
9.21710092005
30
1.84168176362
70
192
0
VERTEX
8
1
10
10.9310491743
20
9.88245505203
30
1.4506699723
70
192
0
VERTEX
8
1
10
8.99214223666
20
8.74285214792
30
2.13580411762
70
192
0
VERTEX
8
1
10
10.1772549894
20
9.24259561465
30
1.84867824829
70
192
0
VERTEX
8
1
10
10.7589127466
20
9.24278447724
30
1.87169270889
70
192
0
VERTEX
8
1
10
13.0442554619
20
9.93723616208
30
1.49809969691
70
192
0
VERTEX
8
1
10
13.086941629
20
8.83437109117
30
2.2374961786
70
192
0
VERTEX
8
1
10
0
20
0
30
0
70
128
71
10
72
12
73
8
0
VERTEX
8
1
10
0
20
0
30
0
70
128
71
12
72
10
73
11
0
VERTEX
8
1
10
0
20
0
30
0
70
128
71
11
72
10
73
7
0
VERTEX
8
1
10
0
20
0
30
0
70
128
71
3
72
7
73
10
0
VERTEX
8
1
10
0
20
0
30
0
70
128
71
7
72
3
73
4
0
VERTEX
8
1
10
0
20
0
30
0
70
128
71
8
72
9
73
10
0
VERTEX
8
1
10
0
20
0
30
0
70
128
71
8
72
6
73
9
0
VERTEX
8
1
10
0
20
0
30
0
70
128
71
8
72
5
73
6
0
VERTEX
8
1
10
0
20
0
30
0
70
128
71
9
72
6
73
1
0
VERTEX
8
1
10
0
20
0
30
0
70
128
71
1
72
2
73
9
0
SEQEND
0
POLYLINE
8
0
39
0
100
AcDb3dPolyline
66
1
10
0
20
0
30
0
70
9
0
VERTEX
8
0
100
AcDb3dPolylineVertex
10
13.0726408115
20
9.95841527994
30
-0.0599117039745
0
VERTEX
8
0
100
AcDb3dPolylineVertex
10
13.1467381719
20
8.52482866908
30
-0.082566950844
0
VERTEX
8
0
100
AcDb3dPolylineVertex
10
13.1055075671
20
8.47422803203
30
2.23437044038
0
VERTEX
8
0
100
AcDb3dPolylineVertex
10
13.086941629
20
8.83437109117
30
2.2374961786
0
VERTEX
8
0
100
AcDb3dPolylineVertex
10
13.0442554619
20
9.93723616208
30
1.49809969691
0
SEQEND
0
POLYLINE
8
1
70
64
66
1
10
0
20
0
30
0
71
5
72
3
0
VERTEX
8
1
10
13.1467381719
20
8.52482866908
30
-0.082566950844
70
192
0
VERTEX
8
1
10
13.1055075671
20
8.47422803203
30
2.23437044038
70
192
0
VERTEX
8
1
10
13.086941629
20
8.83437109117
30
2.2374961786
70
192
0
VERTEX
8
1
10
13.0726408115
20
9.95841527994
30
-0.0599117039745
70
192
0
VERTEX
8
1
10
13.0442554619
20
9.93723616208
30
1.49809969691
70
192
0
VERTEX
8
1
10
0
20
0
30
0
70
128
71
5
72
4
73
1
0
VERTEX
8
1
10
0
20
0
30
0
70
128
71
3
72
5
73
1
0
VERTEX
8
1
10
0
20
0
30
0
70
128
71
1
72
2
73
3
0
SEQEND
0
POLYLINE
8
0
39
0
100
AcDb3dPolyline
66
1
10
0
20
0
30
0
70
9
0
VERTEX
8
0
100
AcDb3dPolylineVertex
10
9.0508007698
20
8.42220877072
30
-0.186107367117
0
VERTEX
8
0
100
AcDb3dPolylineVertex
10
9.01398255281
20
10.5339883295
30
-0.150937054423
0
VERTEX
8
0
100
AcDb3dPolylineVertex
10
8.98781504589
20
10.5127218716
30
0.951778922177
0
VERTEX
8
0
100
AcDb3dPolylineVertex
10
8.98717158963
20
9.20792338565
30
1.82452343049
0
VERTEX
8
0
100
AcDb3dPolylineVertex
10
8.99214223666
20
8.74285214792
30
2.13580411762
0
VERTEX
8
0
100
AcDb3dPolylineVertex
10
8.99423267848
20
8.379819573
30
2.13224410179
0
SEQEND
0
POLYLINE
8
1
70
64
66
1
10
0
20
0
30
0
71
6
72
4
0
VERTEX
8
1
10
9.01398255281
20
10.5339883295
30
-0.150937054423
70
192
0
VERTEX
8
1
10
8.98781504589
20
10.5127218716
30
0.951778922177
70
192
0
VERTEX
8
1
10
8.98717158963
20
9.20792338565
30
1.82452343049
70
192
0
VERTEX
8
1
10
8.99214223666
20
8.74285214792
30
2.13580411762
70
192
0
VERTEX
8
1
10
9.0508007698
20
8.42220877072
30
-0.186107367117
70
192
0
VERTEX
8
1
10
8.99423267848
20
8.379819573
30
2.13224410179
70
192
0
VERTEX
8
1
10
0
20
0
30
0
70
128
71
5
72
3
73
6
0
VERTEX
8
1
10
0
20
0
30
0
70
128
71
5
72
2
73
3
0
VERTEX
8
1
10
0
20
0
30
0
70
128
71
5
72
1
73
2
0
VERTEX
8
1
10
0
20
0
30
0
70
128
71
3
72
4
73
6
0
SEQEND
0
POLYLINE
8
0
39
0
100
AcDb3dPolyline
66
1
10
0
20
0
30
0
70
9
0
VERTEX
8
0
100
AcDb3dPolylineVertex
10
8.99423267848
20
8.379819573
30
2.13224410179
0
VERTEX
8
0
100
AcDb3dPolylineVertex
10
13.1055075671
20
8.47422803203
30
2.23437044038
0
VERTEX
8
0
100
AcDb3dPolylineVertex
10
13.1467381719
20
8.52482866908
30
-0.082566950844
0
VERTEX
8
0
100
AcDb3dPolylineVertex
10
10.7132126845
20
8.46896825609
30
-0.14399629687
0
VERTEX
8
0
100
AcDb3dPolylineVertex
10
10.7049353356
20
8.42609702102
30
1.84824928347
0
VERTEX
8
0
100
AcDb3dPolylineVertex
10
10.1242314721
20
8.41243558951
30
1.84907263885
0
VERTEX
8
0
100
AcDb3dPolylineVertex
10
10.0907010112
20
8.45467836337
30
-0.159710244922
0
VERTEX
8
0
100
AcDb3dPolylineVertex
10
9.0508007698
20
8.42220877072
30
-0.186107367117
0
SEQEND
0
POLYLINE
8
1
70
64
66
1
10
0
20
0
30
0
71
8
72
6
0
VERTEX
8
1
10
9.0508007698
20
8.42220877072
30
-0.186107367117
70
192
0
VERTEX
8
1
10
8.99423267848
20
8.379819573
30
2.13224410179
70
192
0
VERTEX
8
1
10
10.0907010112
20
8.45467836337
30
-0.159710244922
70
192
0
VERTEX
8
1
10
10.1242314721
20
8.41243558951
30
1.84907263885
70
192
0
VERTEX
8
1
10
10.7132126845
20
8.46896825609
30
-0.14399629687
70
192
0
VERTEX
8
1
10
10.7049353356
20
8.42609702102
30
1.84824928347
70
192
0
VERTEX
8
1
10
13.1467381719
20
8.52482866908
30
-0.082566950844
70
192
0
VERTEX
8
1
10
13.1055075671
20
8.47422803203
30
2.23437044038
70
192
0
VERTEX
8
1
10
0
20
0
30
0
70
128
71
7
72
6
73
8
0
VERTEX
8
1
10
0
20
0
30
0
70
128
71
7
72
5
73
6
0
VERTEX
8
1
10
0
20
0
30
0
70
128
71
6
72
2
73
8
0
VERTEX
8
1
10
0
20
0
30
0
70
128
71
2
72
6
73
4
0
VERTEX
8
1
10
0
20
0
30
0
70
128
71
2
72
4
73
1
0
VERTEX
8
1
10
0
20
0
30
0
70
128
71
4
72
3
73
1
0
SEQEND
0
POLYLINE
8
0
39
0
100
AcDb3dPolyline
66
1
10
0
20
0
30
0
70
9
0
VERTEX
8
0
100
AcDb3dPolylineVertex
10
9.57584064896
20
10.527643949
30
0.965191878745
0
VERTEX
8
0
100
AcDb3dPolylineVertex
10
9.57274987493
20
9.21710092005
30
1.84168176362
0
VERTEX
8
0
100
AcDb3dPolylineVertex
10
9.56060398323
20
9.42131400272
30
2.1469817706
0
VERTEX
8
0
100
AcDb3dPolylineVertex
10
9.56401427192
20
10.7264846039
30
1.26245979213
0
SEQEND
0
POLYLINE
8
1
70
64
66
1
10
0
20
0
30
0
71
4
72
2
0
VERTEX
8
1
10
9.57274987493
20
9.21710092005
30
1.84168176362
70
192
0
VERTEX
8
1
10
9.56060398323
20
9.42131400272
30
2.1469817706
70
192
0
VERTEX
8
1
10
9.57584064896
20
10.527643949
30
0.965191878745
70
192
0
VERTEX
8
1
10
9.56401427192
20
10.7264846039
30
1.26245979213
70
192
0
VERTEX
8
1
10
0
20
0
30
0
70
128
71
4
72
3
73
2
0
VERTEX
8
1
10
0
20
0
30
0
70
128
71
3
72
1
73
2
0
SEQEND
0
POLYLINE
8
0
39
0
100
AcDb3dPolyline
66
1
10
0
20
0
30
0
70
9
0
VERTEX
8
0
100
AcDb3dPolylineVertex
10
13.086941629
20
8.83437109117
30
2.2374961786
0
VERTEX
8
0
100
AcDb3dPolylineVertex
10
13.1055075671
20
8.47422803203
30
2.23437044038
0
VERTEX
8
0
100
AcDb3dPolylineVertex
10
8.99423267848
20
8.379819573
30
2.13224410179
0
VERTEX
8
0
100
AcDb3dPolylineVertex
10
8.99214223666
20
8.74285214792
30
2.13580411762
0
SEQEND
0
POLYLINE
8
1
70
64
66
1
10
0
20
0
30
0
71
4
72
2
0
VERTEX
8
1
10
8.99214223666
20
8.74285214792
30
2.13580411762
70
192
0
VERTEX
8
1
10
8.99423267848
20
8.379819573
30
2.13224410179
70
192
0
VERTEX
8
1
10
13.086941629
20
8.83437109117
30
2.2374961786
70
192
0
VERTEX
8
1
10
13.1055075671
20
8.47422803203
30
2.23437044038
70
192
0
VERTEX
8
1
10
0
20
0
30
0
70
128
71
4
72
2
73
3
0
VERTEX
8
1
10
0
20
0
30
0
70
128
71
3
72
2
73
1
0
SEQEND
0
POLYLINE
8
0
39
0
100
AcDb3dPolyline
66
1
10
0
20
0
30
0
70
9
0
VERTEX
8
0
100
AcDb3dPolylineVertex
10
8.98781504589
20
10.5127218716
30
0.951778922177
0
VERTEX
8
0
100
AcDb3dPolylineVertex
10
9.57584064896
20
10.527643949
30
0.965191878745
0
VERTEX
8
0
100
AcDb3dPolylineVertex
10
9.56401427192
20
10.7264846039
30
1.26245979213
0
VERTEX
8
0
100
AcDb3dPolylineVertex
10
8.97686072189
20
10.6968941764
30
1.22711812389
0
SEQEND
0
POLYLINE
8
1
70
64
66
1
10
0
20
0
30
0
71
4
72
2
0
VERTEX
8
1
10
9.57584064896
20
10.527643949
30
0.965191878745
70
192
0
VERTEX
8
1
10
8.98781504589
20
10.5127218716
30
0.951778922177
70
192
0
VERTEX
8
1
10
9.56401427192
20
10.7264846039
30
1.26245979213
70
192
0
VERTEX
8
1
10
8.97686072189
20
10.6968941764
30
1.22711812389
70
192
0
VERTEX
8
1
10
0
20
0
30
0
70
128
71
4
72
2
73
1
0
VERTEX
8
1
10
0
20
0
30
0
70
128
71
4
72
1
73
3
0
SEQEND
0
POLYLINE
8
0
39
0
100
AcDb3dPolyline
66
1
10
0
20
0
30
0
70
9
0
VERTEX
8
0
100
AcDb3dPolylineVertex
10
8.98717158963
20
9.20792338565
30
1.82452343049
0
VERTEX
8
0
100
AcDb3dPolylineVertex
10
8.98781504589
20
10.5127218716
30
0.951778922177
0
VERTEX
8
0
100
AcDb3dPolylineVertex
10
8.97686072189
20
10.6968941764
30
1.22711812389
0
VERTEX
8
0
100
AcDb3dPolylineVertex
10
8.97589533145
20
9.39750586378
30
2.1079508416
0
SEQEND
0
POLYLINE
8
1
70
64
66
1
10
0
20
0
30
0
71
4
72
2
0
VERTEX
8
1
10
8.97686072189
20
10.6968941764
30
1.22711812389
70
192
0
VERTEX
8
1
10
8.98781504589
20
10.5127218716
30
0.951778922177
70
192
0
VERTEX
8
1
10
8.97589533145
20
9.39750586378
30
2.1079508416
70
192
0
VERTEX
8
1
10
8.98717158963
20
9.20792338565
30
1.82452343049
70
192
0
VERTEX
8
1
10
0
20
0
30
0
70
128
71
2
72
1
73
4
0
VERTEX
8
1
10
0
20
0
30
0
70
128
71
4
72
1
73
3
0
SEQEND
0
POLYLINE
8
0
39
0
100
AcDb3dPolyline
66
1
10
0
20
0
30
0
70
9
0
VERTEX
8
0
100
AcDb3dPolylineVertex
10
9.57274987493
20
9.21710092005
30
1.84168176362
0
VERTEX
8
0
100
AcDb3dPolylineVertex
10
8.98717158963
20
9.20792338565
30
1.82452343049
0
VERTEX
8
0
100
AcDb3dPolylineVertex
10
8.97589533145
20
9.39750586378
30
2.1079508416
0
VERTEX
8
0
100
AcDb3dPolylineVertex
10
9.56060398323
20
9.42131400272
30
2.1469817706
0
SEQEND
0
POLYLINE
8
1
70
64
66
1
10
0
20
0
30
0
71
4
72
2
0
VERTEX
8
1
10
8.97589533145
20
9.39750586378
30
2.1079508416
70
192
0
VERTEX
8
1
10
9.56060398323
20
9.42131400272
30
2.1469817706
70
192
0
VERTEX
8
1
10
8.98717158963
20
9.20792338565
30
1.82452343049
70
192
0
VERTEX
8
1
10
9.57274987493
20
9.21710092005
30
1.84168176362
70
192
0
VERTEX
8
1
10
0
20
0
30
0
70
128
71
3
72
1
73
4
0
VERTEX
8
1
10
0
20
0
30
0
70
128
71
4
72
1
73
2
0
SEQEND
0
POLYLINE
8
0
39
0
100
AcDb3dPolyline
66
1
10
0
20
0
30
0
70
9
0
VERTEX
8
0
100
AcDb3dPolylineVertex
10
8.97589533145
20
9.39750586378
30
2.1079508416
0
VERTEX
8
0
100
AcDb3dPolylineVertex
10
8.97686072189
20
10.6968941764
30
1.22711812389
0
VERTEX
8
0
100
AcDb3dPolylineVertex
10
9.56401427192
20
10.7264846039
30
1.26245979213
0
VERTEX
8
0
100
AcDb3dPolylineVertex
10
9.56060398323
20
9.42131400272
30
2.1469817706
0
SEQEND
0
POLYLINE
8
1
70
64
66
1
10
0
20
0
30
0
71
4
72
2
0
VERTEX
8
1
10
8.97686072189
20
10.6968941764
30
1.22711812389
70
192
0
VERTEX
8
1
10
9.56401427192
20
10.7264846039
30
1.26245979213
70
192
0
VERTEX
8
1
10
8.97589533145
20
9.39750586378
30
2.1079508416
70
192
0
VERTEX
8
1
10
9.56060398323
20
9.42131400272
30
2.1469817706
70
192
0
VERTEX
8
1
10
0
20
0
30
0
70
128
71
4
72
3
73
1
0
VERTEX
8
1
10
0
20
0
30
0
70
128
71
4
72
1
73
2
0
SEQEND
0
POLYLINE
8
0
39
0
100
AcDb3dPolyline
66
1
10
0
20
0
30
0
70
9
0
VERTEX
8
0
100
AcDb3dPolylineVertex
10
10.7111254727
20
8.27353336088
30
1.85064980344
0
VERTEX
8
0
100
AcDb3dPolylineVertex
10
10.1252729884
20
8.26926672681
30
1.85018598112
0
VERTEX
8
0
100
AcDb3dPolylineVertex
10
10.1242314721
20
8.41243558951
30
1.84907263885
0
VERTEX
8
0
100
AcDb3dPolylineVertex
10
10.7049353356
20
8.42609702102
30
1.84824928347
0
SEQEND
0
POLYLINE
8
1
70
64
66
1
10
0
20
0
30
0
71
4
72
2
0
VERTEX
8
1
10
10.1252729884
20
8.26926672681
30
1.85018598112
70
192
0
VERTEX
8
1
10
10.1242314721
20
8.41243558951
30
1.84907263885
70
192
0
VERTEX
8
1
10
10.7111254727
20
8.27353336088
30
1.85064980344
70
192
0
VERTEX
8
1
10
10.7049353356
20
8.42609702102
30
1.84824928347
70
192
0
VERTEX
8
1
10
0
20
0
30
0
70
128
71
4
72
3
73
2
0
VERTEX
8
1
10
0
20
0
30
0
70
128
71
3
72
1
73
2
0
SEQEND
0
POLYLINE
8
0
39
0
100
AcDb3dPolyline
66
1
10
0
20
0
30
0
70
9
0
VERTEX
8
0
100
AcDb3dPolylineVertex
10
10.7589127466
20
9.24278447724
30
1.87169270889
0
VERTEX
8
0
100
AcDb3dPolylineVertex
10
10.1772549894
20
9.24259561465
30
1.84867824829
0
VERTEX
8
0
100
AcDb3dPolylineVertex
10
10.1689894047
20
9.73840854455
30
1.85808468768
0
VERTEX
8
0
100
AcDb3dPolylineVertex
10
10.7523895875
20
9.73859809782
30
1.88116809081
0
SEQEND
0
POLYLINE
8
1
70
64
66
1
10
0
20
0
30
0
71
4
72
2
0
VERTEX
8
1
10
10.1772549894
20
9.24259561465
30
1.84867824829
70
192
0
VERTEX
8
1
10
10.1689894047
20
9.73840854455
30
1.85808468768
70
192
0
VERTEX
8
1
10
10.7589127466
20
9.24278447724
30
1.87169270889
70
192
0
VERTEX
8
1
10
10.7523895875
20
9.73859809782
30
1.88116809081
70
192
0
VERTEX
8
1
10
0
20
0
30
0
70
128
71
3
72
1
73
4
0
VERTEX
8
1
10
0
20
0
30
0
70
128
71
4
72
1
73
2
0
SEQEND
0
POLYLINE
8
0
39
0
100
AcDb3dPolyline
66
1
10
0
20
0
30
0
70
9
0
VERTEX
8
0
100
AcDb3dPolylineVertex
10
10.7650523042
20
10.5578209459
30
0.992318289682
0
VERTEX
8
0
100
AcDb3dPolylineVertex
10
10.7589127466
20
9.24278447724
30
1.87169270889
0
VERTEX
8
0
100
AcDb3dPolylineVertex
10
10.7523895875
20
9.73859809782
30
1.88116809081
0
VERTEX
8
0
100
AcDb3dPolylineVertex
10
10.7561835628
20
10.5511407382
30
1.33781522749
0
SEQEND
0
POLYLINE
8
1
70
64
66
1
10
0
20
0
30
0
71
4
72
2
0
VERTEX
8
1
10
10.7589127466
20
9.24278447724
30
1.87169270889
70
192
0
VERTEX
8
1
10
10.7523895875
20
9.73859809782
30
1.88116809081
70
192
0
VERTEX
8
1
10
10.7650523042
20
10.5578209459
30
0.992318289682
70
192
0
VERTEX
8
1
10
10.7561835628
20
10.5511407382
30
1.33781522749
70
192
0
VERTEX
8
1
10
0
20
0
30
0
70
128
71
4
72
3
73
2
0
VERTEX
8
1
10
0
20
0
30
0
70
128
71
2
72
3
73
1
0
SEQEND
0
POLYLINE
8
0
39
0
100
AcDb3dPolyline
66
1
10
0
20
0
30
0
70
9
0
VERTEX
8
0
100
AcDb3dPolylineVertex
10
10.1814254525
20
10.545038248
30
0.977649493706
0
VERTEX
8
0
100
AcDb3dPolylineVertex
10
10.7650523042
20
10.5578209459
30
0.992318289682
0
VERTEX
8
0
100
AcDb3dPolylineVertex
10
10.7561835628
20
10.5511407382
30
1.33781522749
0
VERTEX
8
0
100
AcDb3dPolylineVertex
10
10.1720507788
20
10.6944807023
30
1.21869663171
0
SEQEND
0
POLYLINE
8
1
70
64
66
1
10
0
20
0
30
0
71
4
72
2
0
VERTEX
8
1
10
10.7650523042
20
10.5578209459
30
0.992318289682
70
192
0
VERTEX
8
1
10
10.7561835628
20
10.5511407382
30
1.33781522749
70
192
0
VERTEX
8
1
10
10.1814254525
20
10.545038248
30
0.977649493706
70
192
0
VERTEX
8
1
10
10.1720507788
20
10.6944807023
30
1.21869663171
70
192
0
VERTEX
8
1
10
0
20
0
30
0
70
128
71
3
72
1
73
4
0
VERTEX
8
1
10
0
20
0
30
0
70
128
71
4
72
1
73
2
0
SEQEND
0
POLYLINE
8
0
39
0
100
AcDb3dPolyline
66
1
10
0
20
0
30
0
70
9
0
VERTEX
8
0
100
AcDb3dPolylineVertex
10
10.1772549894
20
9.24259561465
30
1.84867824829
0
VERTEX
8
0
100
AcDb3dPolylineVertex
10
10.1814254525
20
10.545038248
30
0.977649493706
0
VERTEX
8
0
100
AcDb3dPolylineVertex
10
10.1720507788
20
10.6944807023
30
1.21869663171
0
VERTEX
8
0
100
AcDb3dPolylineVertex
10
10.1689894047
20
9.73840854455
30
1.85808468768
0
SEQEND
0
POLYLINE
8
1
70
64
66
1
10
0
20
0
30
0
71
4
72
2
0
VERTEX
8
1
10
10.1720507788
20
10.6944807023
30
1.21869663171
70
192
0
VERTEX
8
1
10
10.1814254525
20
10.545038248
30
0.977649493706
70
192
0
VERTEX
8
1
10
10.1689894047
20
9.73840854455
30
1.85808468768
70
192
0
VERTEX
8
1
10
10.1772549894
20
9.24259561465
30
1.84867824829
70
192
0
VERTEX
8
1
10
0
20
0
30
0
70
128
71
4
72
2
73
3
0
VERTEX
8
1
10
0
20
0
30
0
70
128
71
2
72
1
73
3
0
SEQEND
0
POLYLINE
8
0
39
0
100
AcDb3dPolyline
66
1
10
0
20
0
30
0
70
9
0
VERTEX
8
0
100
AcDb3dPolylineVertex
10
10.1720507788
20
10.6944807023
30
1.21869663171
0
VERTEX
8
0
100
AcDb3dPolylineVertex
10
10.7561835628
20
10.5511407382
30
1.33781522749
0
VERTEX
8
0
100
AcDb3dPolylineVertex
10
10.7523895875
20
9.73859809782
30
1.88116809081
0
VERTEX
8
0
100
AcDb3dPolylineVertex
10
10.1689894047
20
9.73840854455
30
1.85808468768
0
SEQEND
0
POLYLINE
8
1
70
64
66
1
10
0
20
0
30
0
71
4
72
2
0
VERTEX
8
1
10
10.1720507788
20
10.6944807023
30
1.21869663171
70
192
0
VERTEX
8
1
10
10.7561835628
20
10.5511407382
30
1.33781522749
70
192
0
VERTEX
8
1
10
10.1689894047
20
9.73840854455
30
1.85808468768
70
192
0
VERTEX
8
1
10
10.7523895875
20
9.73859809782
30
1.88116809081
70
192
0
VERTEX
8
1
10
0
20
0
30
0
70
128
71
4
72
3
73
2
0
VERTEX
8
1
10
0
20
0
30
0
70
128
71
3
72
1
73
2
0
SEQEND
0
POLYLINE
8
0
39
0
100
AcDb3dPolyline
66
1
10
0
20
0
30
0
70
9
0
VERTEX
8
0
100
AcDb3dPolylineVertex
10
12.1933967804
20
6.87564510245
30
-0.127238778987
0
VERTEX
8
0
100
AcDb3dPolylineVertex
10
12.1797752317
20
7.68738878027
30
-0.112181162875
0
VERTEX
8
0
100
AcDb3dPolylineVertex
10
12.3317490508
20
7.71677213805
30
-0.108501192501
0
VERTEX
8
0
100
AcDb3dPolylineVertex
10
12.3491578693
20
6.90170233145
30
-0.123543915264
0
VERTEX
8
0
100
AcDb3dPolylineVertex
10
13.2607906186
20
6.91615530905
30
-0.104526776553
0
VERTEX
8
0
100
AcDb3dPolylineVertex
10
13.1924774326
20
8.34622427106
30
-0.0789104385238
0
VERTEX
8
0
100
AcDb3dPolylineVertex
10
11.2086407015
20
8.28755603187
30
-0.120808415395
0
VERTEX
8
0
100
AcDb3dPolylineVertex
10
11.2641610814
20
6.86603766726
30
-0.146526294217
0
SEQEND
0
POLYLINE
8
1
70
64
66
1
10
0
20
0
30
0
71
8
72
6
0
VERTEX
8
1
10
13.1924774326
20
8.34622427106
30
-0.0789104385238
70
192
0
VERTEX
8
1
10
13.2607906186
20
6.91615530905
30
-0.104526776553
70
192
0
VERTEX
8
1
10
12.3317490508
20
7.71677213805
30
-0.108501192501
70
192
0
VERTEX
8
1
10
12.1797752317
20
7.68738878027
30
-0.112181162875
70
192
0
VERTEX
8
1
10
12.3491578693
20
6.90170233145
30
-0.123543915264
70
192
0
VERTEX
8
1
10
11.2086407015
20
8.28755603187
30
-0.120808415395
70
192
0
VERTEX
8
1
10
12.1933967804
20
6.87564510245
30
-0.127238778987
70
192
0
VERTEX
8
1
10
11.2641610814
20
6.86603766726
30
-0.146526294217
70
192
0
VERTEX
8
1
10
0
20
0
30
0
70
128
71
5
72
2
73
3
0
VERTEX
8
1
10
0
20
0
30
0
70
128
71
2
72
1
73
3
0
VERTEX
8
1
10
0
20
0
30
0
70
128
71
6
72
3
73
1
0
VERTEX
8
1
10
0
20
0
30
0
70
128
71
6
72
4
73
3
0
VERTEX
8
1
10
0
20
0
30
0
70
128
71
8
72
4
73
6
0
VERTEX
8
1
10
0
20
0
30
0
70
128
71
8
72
7
73
4
0
SEQEND
0
POLYLINE
8
0
39
0
100
AcDb3dPolyline
66
1
10
0
20
0
30
0
70
9
0
VERTEX
8
0
100
AcDb3dPolylineVertex
10
12.1797752317
20
7.68738878027
30
-0.112181162875
0
VERTEX
8
0
100
AcDb3dPolylineVertex
10
12.1933967804
20
6.87564510245
30
-0.127238778987
0
VERTEX
8
0
100
AcDb3dPolylineVertex
10
12.1632475434
20
6.83107749055
30
2.35679507592
0
VERTEX
8
0
100
AcDb3dPolylineVertex
10
12.1497821291
20
7.63203250242
30
2.37366963064
0
SEQEND
0
POLYLINE
8
1
70
64
66
1
10
0
20
0
30
0
71
4
72
2
0
VERTEX
8
1
10
12.1933967804
20
6.87564510245
30
-0.127238778987
70
192
0
VERTEX
8
1
10
12.1632475434
20
6.83107749055
30
2.35679507592
70
192
0
VERTEX
8
1
10
12.1497821291
20
7.63203250242
30
2.37366963064
70
192
0
VERTEX
8
1
10
12.1797752317
20
7.68738878027
30
-0.112181162875
70
192
0
VERTEX
8
1
10
0
20
0
30
0
70
128
71
4
72
1
73
3
0
VERTEX
8
1
10
0
20
0
30
0
70
128
71
1
72
2
73
3
0
SEQEND
0
POLYLINE
8
0
39
0
100
AcDb3dPolyline
66
1
10
0
20
0
30
0
70
9
0
VERTEX
8
0
100
AcDb3dPolylineVertex
10
10.1225150175
20
8.25380962748
30
-0.134855513646
0
VERTEX
8
0
100
AcDb3dPolylineVertex
10
10.6954345795
20
8.25794501219
30
-0.139166787904
0
VERTEX
8
0
100
AcDb3dPolylineVertex
10
10.7132126845
20
8.46896825609
30
-0.14399629687
0
VERTEX
8
0
100
AcDb3dPolylineVertex
10
10.0907010112
20
8.45467836337
30
-0.159710244922
0
SEQEND
0
POLYLINE
8
1
70
64
66
1
10
0
20
0
30
0
71
4
72
2
0
VERTEX
8
1
10
10.7132126845
20
8.46896825609
30
-0.14399629687
70
192
0
VERTEX
8
1
10
10.6954345795
20
8.25794501219
30
-0.139166787904
70
192
0
VERTEX
8
1
10
10.0907010112
20
8.45467836337
30
-0.159710244922
70
192
0
VERTEX
8
1
10
10.1225150175
20
8.25380962748
30
-0.134855513646
70
192
0
VERTEX
8
1
10
0
20
0
30
0
70
128
71
4
72
2
73
1
0
VERTEX
8
1
10
0
20
0
30
0
70
128
71
3
72
4
73
1
0
SEQEND
0
POLYLINE
8
0
39
0
100
AcDb3dPolyline
66
1
10
0
20
0
30
0
70
9
0
VERTEX
8
0
100
AcDb3dPolylineVertex
10
10.1252729884
20
8.26926672681
30
1.85018598112
0
VERTEX
8
0
100
AcDb3dPolylineVertex
10
10.1225150175
20
8.25380962748
30
-0.134855513646
0
VERTEX
8
0
100
AcDb3dPolylineVertex
10
10.0907010112
20
8.45467836337
30
-0.159710244922
0
VERTEX
8
0
100
AcDb3dPolylineVertex
10
10.1242314721
20
8.41243558951
30
1.84907263885
0
SEQEND
0
POLYLINE
8
1
70
64
66
1
10
0
20
0
30
0
71
4
72
2
0
VERTEX
8
1
10
10.0907010112
20
8.45467836337
30
-0.159710244922
70
192
0
VERTEX
8
1
10
10.1242314721
20
8.41243558951
30
1.84907263885
70
192
0
VERTEX
8
1
10
10.1252729884
20
8.26926672681
30
1.85018598112
70
192
0
VERTEX
8
1
10
10.1225150175
20
8.25380962748
30
-0.134855513646
70
192
0
VERTEX
8
1
10
0
20
0
30
0
70
128
71
4
72
1
73
2
0
VERTEX
8
1
10
0
20
0
30
0
70
128
71
3
72
4
73
2
0
SEQEND
0
POLYLINE
8
0
39
0
100
AcDb3dPolyline
66
1
10
0
20
0
30
0
70
9
0
VERTEX
8
0
100
AcDb3dPolylineVertex
10
12.3317490508
20
7.71677213805
30
-0.108501192501
0
VERTEX
8
0
100
AcDb3dPolylineVertex
10
12.1797752317
20
7.68738878027
30
-0.112181162875
0
VERTEX
8
0
100
AcDb3dPolylineVertex
10
12.1497821291
20
7.63203250242
30
2.37366963064
0
VERTEX
8
0
100
AcDb3dPolylineVertex
10
12.2501579593
20
7.65143446181
30
2.37639037514
0
SEQEND
0
POLYLINE
8
1
70
64
66
1
10
0
20
0
30
0
71
4
72
2
0
VERTEX
8
1
10
12.1797752317
20
7.68738878027
30
-0.112181162875
70
192
0
VERTEX
8
1
10
12.1497821291
20
7.63203250242
30
2.37366963064
70
192
0
VERTEX
8
1
10
12.2501579593
20
7.65143446181
30
2.37639037514
70
192
0
VERTEX
8
1
10
12.3317490508
20
7.71677213805
30
-0.108501192501
70
192
0
VERTEX
8
1
10
0
20
0
30
0
70
128
71
4
72
1
73
3
0
VERTEX
8
1
10
0
20
0
30
0
70
128
71
1
72
2
73
3
0
SEQEND
0
POLYLINE
8
0
39
0
100
AcDb3dPolyline
66
1
10
0
20
0
30
0
70
9
0
VERTEX
8
0
100
AcDb3dPolylineVertex
10
12.3491578693
20
6.90170233145
30
-0.123543915264
0
VERTEX
8
0
100
AcDb3dPolylineVertex
10
12.3317490508
20
7.71677213805
30
-0.108501192501
0
VERTEX
8
0
100
AcDb3dPolylineVertex
10
12.2501579593
20
7.65143446181
30
2.37639037514
0
VERTEX
8
0
100
AcDb3dPolylineVertex
10
12.2682131752
20
6.80939544202
30
2.35873978659
0
SEQEND
0
POLYLINE
8
1
70
64
66
1
10
0
20
0
30
0
71
4
72
2
0
VERTEX
8
1
10
12.3317490508
20
7.71677213805
30
-0.108501192501
70
192
0
VERTEX
8
1
10
12.2501579593
20
7.65143446181
30
2.37639037514
70
192
0
VERTEX
8
1
10
12.3491578693
20
6.90170233145
30
-0.123543915264
70
192
0
VERTEX
8
1
10
12.2682131752
20
6.80939544202
30
2.35873978659
70
192
0
VERTEX
8
1
10
0
20
0
30
0
70
128
71
3
72
2
73
4
0
VERTEX
8
1
10
0
20
0
30
0
70
128
71
3
72
1
73
2
0
SEQEND
0
POLYLINE
8
0
39
0
100
AcDb3dPolyline
66
1
10
0
20
0
30
0
70
9
0
VERTEX
8
0
100
AcDb3dPolylineVertex
10
13.2607906186
20
6.91615530905
30
-0.104526776553
0
VERTEX
8
0
100
AcDb3dPolylineVertex
10
12.3491578693
20
6.90170233145
30
-0.123543915264
0
VERTEX
8
0
100
AcDb3dPolylineVertex
10
12.2682131752
20
6.80939544202
30
2.35873978659
0
VERTEX
8
0
100
AcDb3dPolylineVertex
10
13.2328810997
20
6.82460376439
30
2.38121352608
0
SEQEND
0
POLYLINE
8
1
70
64
66
1
10
0
20
0
30
0
71
4
72
2
0
VERTEX
8
1
10
12.2682131752
20
6.80939544202
30
2.35873978659
70
192
0
VERTEX
8
1
10
12.3491578693
20
6.90170233145
30
-0.123543915264
70
192
0
VERTEX
8
1
10
13.2607906186
20
6.91615530905
30
-0.104526776553
70
192
0
VERTEX
8
1
10
13.2328810997
20
6.82460376439
30
2.38121352608
70
192
0
VERTEX
8
1
10
0
20
0
30
0
70
128
71
3
72
1
73
4
0
VERTEX
8
1
10
0
20
0
30
0
70
128
71
3
72
2
73
1
0
SEQEND
0
POLYLINE
8
0
39
0
100
AcDb3dPolyline
66
1
10
0
20
0
30
0
70
9
0
VERTEX
8
0
100
AcDb3dPolylineVertex
10
13.1924774326
20
8.34622427106
30
-0.0789104385238
0
VERTEX
8
0
100
AcDb3dPolylineVertex
10
13.2607906186
20
6.91615530905
30
-0.104526776553
0
VERTEX
8
0
100
AcDb3dPolylineVertex
10
13.2328810997
20
6.82460376439
30
2.38121352608
0
VERTEX
8
0
100
AcDb3dPolylineVertex
10
13.1608483047
20
8.33153888009
30
2.4118895716
0
SEQEND
0
POLYLINE
8
1
70
64
66
1
10
0
20
0
30
0
71
4
72
2
0
VERTEX
8
1
10
13.2328810997
20
6.82460376439
30
2.38121352608
70
192
0
VERTEX
8
1
10
13.2607906186
20
6.91615530905
30
-0.104526776553
70
192
0
VERTEX
8
1
10
13.1924774326
20
8.34622427106
30
-0.0789104385238
70
192
0
VERTEX
8
1
10
13.1608483047
20
8.33153888009
30
2.4118895716
70
192
0
VERTEX
8
1
10
0
20
0
30
0
70
128
71
4
72
3
73
2
0
VERTEX
8
1
10
0
20
0
30
0
70
128
71
4
72
2
73
1
0
SEQEND
0
POLYLINE
8
0
39
0
100
AcDb3dPolyline
66
1
10
0
20
0
30
0
70
9
0
VERTEX
8
0
100
AcDb3dPolylineVertex
10
11.2086407015
20
8.28755603187
30
-0.120808415395
0
VERTEX
8
0
100
AcDb3dPolylineVertex
10
13.1924774326
20
8.34622427106
30
-0.0789104385238
0
VERTEX
8
0
100
AcDb3dPolylineVertex
10
13.1608483047
20
8.33153888009
30
2.4118895716
0
VERTEX
8
0
100
AcDb3dPolylineVertex
10
11.1186808823
20
8.26179318805
30
2.36350779899
0
SEQEND
0
POLYLINE
8
1
70
64
66
1
10
0
20
0
30
0
71
4
72
2
0
VERTEX
8
1
10
13.1608483047
20
8.33153888009
30
2.4118895716
70
192
0
VERTEX
8
1
10
13.1924774326
20
8.34622427106
30
-0.0789104385238
70
192
0
VERTEX
8
1
10
11.2086407015
20
8.28755603187
30
-0.120808415395
70
192
0
VERTEX
8
1
10
11.1186808823
20
8.26179318805
30
2.36350779899
70
192
0
VERTEX
8
1
10
0
20
0
30
0
70
128
71
3
72
2
73
1
0
VERTEX
8
1
10
0
20
0
30
0
70
128
71
3
72
1
73
4
0
SEQEND
0
POLYLINE
8
0
39
0
100
AcDb3dPolyline
66
1
10
0
20
0
30
0
70
9
0
VERTEX
8
0
100
AcDb3dPolylineVertex
10
11.1186808823
20
8.26179318805
30
2.36350779899
0
VERTEX
8
0
100
AcDb3dPolylineVertex
10
11.175087824
20
6.82090354595
30
2.3338899724
0
VERTEX
8
0
100
AcDb3dPolylineVertex
10
11.2641610814
20
6.86603766726
30
-0.146526294217
0
VERTEX
8
0
100
AcDb3dPolylineVertex
10
11.2322262828
20
7.68367689941
30
-0.131733716478
0
VERTEX
8
0
100
AcDb3dPolylineVertex
10
11.1619098771
20
7.64014411995
30
1.83465037354
0
VERTEX
8
0
100
AcDb3dPolylineVertex
10
11.1397481201
20
8.21000217968
30
1.84236770345
0
VERTEX
8
0
100
AcDb3dPolylineVertex
10
11.2106921563
20
8.23503044928
30
-0.1217587217
0
VERTEX
8
0
100
AcDb3dPolylineVertex
10
11.2086407015
20
8.28755603187
30
-0.120808415395
0
SEQEND
0
POLYLINE
8
1
70
64
66
1
10
0
20
0
30
0
71
8
72
6
0
VERTEX
8
1
10
11.1186808823
20
8.26179318805
30
2.36350779899
70
192
0
VERTEX
8
1
10
11.2086407015
20
8.28755603187
30
-0.120808415395
70
192
0
VERTEX
8
1
10
11.1397481201
20
8.21000217968
30
1.84236770345
70
192
0
VERTEX
8
1
10
11.2106921563
20
8.23503044928
30
-0.1217587217
70
192
0
VERTEX
8
1
10
11.2322262828
20
7.68367689941
30
-0.131733716478
70
192
0
VERTEX
8
1
10
11.1619098771
20
7.64014411995
30
1.83465037354
70
192
0
VERTEX
8
1
10
11.175087824
20
6.82090354595
30
2.3338899724
70
192
0
VERTEX
8
1
10
11.2641610814
20
6.86603766726
30
-0.146526294217
70
192
0
VERTEX
8
1
10
0
20
0
30
0
70
128
71
8
72
6
73
7
0
VERTEX
8
1
10
0
20
0
30
0
70
128
71
8
72
5
73
6
0
VERTEX
8
1
10
0
20
0
30
0
70
128
71
6
72
1
73
7
0
VERTEX
8
1
10
0
20
0
30
0
70
128
71
6
72
3
73
1
0
VERTEX
8
1
10
0
20
0
30
0
70
128
71
3
72
2
73
1
0
VERTEX
8
1
10
0
20
0
30
0
70
128
71
4
72
2
73
3
0
SEQEND
0
POLYLINE
8
0
39
0
100
AcDb3dPolyline
66
1
10
0
20
0
30
0
70
9
0
VERTEX
8
0
100
AcDb3dPolylineVertex
10
12.1933967804
20
6.87564510245
30
-0.127238778987
0
VERTEX
8
0
100
AcDb3dPolylineVertex
10
11.2641610814
20
6.86603766726
30
-0.146526294217
0
VERTEX
8
0
100
AcDb3dPolylineVertex
10
11.175087824
20
6.82090354595
30
2.3338899724
0
VERTEX
8
0
100
AcDb3dPolylineVertex
10
12.1632475434
20
6.83107749055
30
2.35679507592
0
SEQEND
0
POLYLINE
8
1
70
64
66
1
10
0
20
0
30
0
71
4
72
2
0
VERTEX
8
1
10
11.175087824
20
6.82090354595
30
2.3338899724
70
192
0
VERTEX
8
1
10
11.2641610814
20
6.86603766726
30
-0.146526294217
70
192
0
VERTEX
8
1
10
12.1933967804
20
6.87564510245
30
-0.127238778987
70
192
0
VERTEX
8
1
10
12.1632475434
20
6.83107749055
30
2.35679507592
70
192
0
VERTEX
8
1
10
0
20
0
30
0
70
128
71
4
72
3
73
2
0
VERTEX
8
1
10
0
20
0
30
0
70
128
71
4
72
2
73
1
0
SEQEND
0
POLYLINE
8
0
39
0
100
AcDb3dPolyline
66
1
10
0
20
0
30
0
70
9
0
VERTEX
8
0
100
AcDb3dPolylineVertex
10
11.175087824
20
6.82090354595
30
2.3338899724
0
VERTEX
8
0
100
AcDb3dPolylineVertex
10
11.1186808823
20
8.26179318805
30
2.36350779899
0
VERTEX
8
0
100
AcDb3dPolylineVertex
10
13.1608483047
20
8.33153888009
30
2.4118895716
0
VERTEX
8
0
100
AcDb3dPolylineVertex
10
13.2328810997
20
6.82460376439
30
2.38121352608
0
VERTEX
8
0
100
AcDb3dPolylineVertex
10
12.2682131752
20
6.80939544202
30
2.35873978659
0
VERTEX
8
0
100
AcDb3dPolylineVertex
10
12.2501579593
20
7.65143446181
30
2.37639037514
0
VERTEX
8
0
100
AcDb3dPolylineVertex
10
12.1497821291
20
7.63203250242
30
2.37366963064
0
VERTEX
8
0
100
AcDb3dPolylineVertex
10
12.1632475434
20
6.83107749055
30
2.35679507592
0
SEQEND
0
POLYLINE
8
1
70
64
66
1
10
0
20
0
30
0
71
8
72
6
0
VERTEX
8
1
10
11.1186808823
20
8.26179318805
30
2.36350779899
70
192
0
VERTEX
8
1
10
12.1497821291
20
7.63203250242
30
2.37366963064
70
192
0
VERTEX
8
1
10
11.175087824
20
6.82090354595
30
2.3338899724
70
192
0
VERTEX
8
1
10
12.2501579593
20
7.65143446181
30
2.37639037514
70
192
0
VERTEX
8
1
10
13.1608483047
20
8.33153888009
30
2.4118895716
70
192
0
VERTEX
8
1
10
12.1632475434
20
6.83107749055
30
2.35679507592
70
192
0
VERTEX
8
1
10
12.2682131752
20
6.80939544202
30
2.35873978659
70
192
0
VERTEX
8
1
10
13.2328810997
20
6.82460376439
30
2.38121352608
70
192
0
VERTEX
8
1
10
0
20
0
30
0
70
128
71
6
72
3
73
2
0
VERTEX
8
1
10
0
20
0
30
0
70
128
71
3
72
1
73
2
0
VERTEX
8
1
10
0
20
0
30
0
70
128
71
4
72
2
73
1
0
VERTEX
8
1
10
0
20
0
30
0
70
128
71
1
72
5
73
4
0
VERTEX
8
1
10
0
20
0
30
0
70
128
71
8
72
4
73
5
0
VERTEX
8
1
10
0
20
0
30
0
70
128
71
7
72
4
73
8
0
SEQEND
0
POLYLINE
8
0
39
0
100
AcDb3dPolyline
66
1
10
0
20
0
30
0
70
9
0
VERTEX
8
0
100
AcDb3dPolylineVertex
10
11.1619098771
20
7.64014411995
30
1.83465037354
0
VERTEX
8
0
100
AcDb3dPolylineVertex
10
11.2322262828
20
7.68367689941
30
-0.131733716478
0
VERTEX
8
0
100
AcDb3dPolylineVertex
10
11.0170219287
20
7.66873565965
30
-0.137343426304
0
VERTEX
8
0
100
AcDb3dPolylineVertex
10
11.0310143242
20
7.63189959823
30
1.8339135417
0
SEQEND
0
POLYLINE
8
1
70
64
66
1
10
0
20
0
30
0
71
4
72
2
0
VERTEX
8
1
10
11.0170219287
20
7.66873565965
30
-0.137343426304
70
192
0
VERTEX
8
1
10
11.0310143242
20
7.63189959823
30
1.8339135417
70
192
0
VERTEX
8
1
10
11.1619098771
20
7.64014411995
30
1.83465037354
70
192
0
VERTEX
8
1
10
11.2322262828
20
7.68367689941
30
-0.131733716478
70
192
0
VERTEX
8
1
10
0
20
0
30
0
70
128
71
4
72
1
73
3
0
VERTEX
8
1
10
0
20
0
30
0
70
128
71
3
72
1
73
2
0
SEQEND
0
POLYLINE
8
0
39
0
100
AcDb3dPolyline
66
1
10
0
20
0
30
0
70
9
0
VERTEX
8
0
100
AcDb3dPolylineVertex
10
11.1397481201
20
8.21000217968
30
1.84236770345
0
VERTEX
8
0
100
AcDb3dPolylineVertex
10
11.1619098771
20
7.64014411995
30
1.83465037354
0
VERTEX
8
0
100
AcDb3dPolylineVertex
10
11.0310143242
20
7.63189959823
30
1.8339135417
0
VERTEX
8
0
100
AcDb3dPolylineVertex
10
11.0193591664
20
8.2042368522
30
1.84171494281
0
SEQEND
0
POLYLINE
8
1
70
64
66
1
10
0
20
0
30
0
71
4
72
2
0
VERTEX
8
1
10
11.0310143242
20
7.63189959823
30
1.8339135417
70
192
0
VERTEX
8
1
10
11.1619098771
20
7.64014411995
30
1.83465037354
70
192
0
VERTEX
8
1
10
11.0193591664
20
8.2042368522
30
1.84171494281
70
192
0
VERTEX
8
1
10
11.1397481201
20
8.21000217968
30
1.84236770345
70
192
0
VERTEX
8
1
10
0
20
0
30
0
70
128
71
4
72
2
73
3
0
VERTEX
8
1
10
0
20
0
30
0
70
128
71
2
72
1
73
3
0
SEQEND
0
POLYLINE
8
0
39
0
100
AcDb3dPolyline
66
1
10
0
20
0
30
0
70
9
0
VERTEX
8
0
100
AcDb3dPolylineVertex
10
11.0773526304
20
6.02538335673
30
3.84057761888
0
VERTEX
8
0
100
AcDb3dPolylineVertex
10
11.0686691868
20
6.44894149888
30
3.83766450072
0
VERTEX
8
0
100
AcDb3dPolylineVertex
10
11.0377899289
20
7.67381853272
30
2.97052202088
0
VERTEX
8
0
100
AcDb3dPolylineVertex
10
11.0349647456
20
7.67055345864
30
2.53992950942
0
VERTEX
8
0
100
AcDb3dPolylineVertex
10
11.0313916545
20
7.84521139803
30
2.53984807856
0
VERTEX
8
0
100
AcDb3dPolylineVertex
10
11.033436129
20
7.84605285709
30
2.8468289353
0
VERTEX
8
0
100
AcDb3dPolylineVertex
10
11.0224605613
20
8.28114179145
30
2.53772059134
0
VERTEX
8
0
100
AcDb3dPolylineVertex
10
11.0048960782
20
8.26017911487
30
-0.141495422433
0
VERTEX
8
0
100
AcDb3dPolylineVertex
10
11.0060862251
20
8.20209957007
30
-0.141087747114
0
VERTEX
8
0
100
AcDb3dPolylineVertex
10
11.0193591664
20
8.2042368522
30
1.84171494281
0
VERTEX
8
0
100
AcDb3dPolylineVertex
10
11.0310143242
20
7.63189959823
30
1.8339135417
0
VERTEX
8
0
100
AcDb3dPolylineVertex
10
11.0170219287
20
7.66873565965
30
-0.137343426304
0
VERTEX
8
0
100
AcDb3dPolylineVertex
10
11.0515765064
20
5.98329870092
30
-0.125511490781
0
SEQEND
0
POLYLINE
8
1
70
64
66
1
10
0
20
0
30
0
71
13
72
11
0
VERTEX
8
1
10
11.0515765064
20
5.98329870092
30
-0.125511490781
70
192
0
VERTEX
8
1
10
11.0773526304
20
6.02538335673
30
3.84057761888
70
192
0
VERTEX
8
1
10
11.0686691868
20
6.44894149888
30
3.83766450072
70
192
0
VERTEX
8
1
10
11.0170219287
20
7.66873565965
30
-0.137343426304
70
192
0
VERTEX
8
1
10
11.0310143242
20
7.63189959823
30
1.8339135417
70
192
0
VERTEX
8
1
10
11.0349647456
20
7.67055345864
30
2.53992950942
70
192
0
VERTEX
8
1
10
11.0377899289
20
7.67381853272
30
2.97052202088
70
192
0
VERTEX
8
1
10
11.0313916545
20
7.84521139803
30
2.53984807856
70
192
0
VERTEX
8
1
10
11.033436129
20
7.84605285709
30
2.8468289353
70
192
0
VERTEX
8
1
10
11.0060862251
20
8.20209957007
30
-0.141087747114
70
192
0
VERTEX
8
1
10
11.0193591664
20
8.2042368522
30
1.84171494281
70
192
0
VERTEX
8
1
10
11.0048960782
20
8.26017911487
30
-0.141495422433
70
192
0
VERTEX
8
1
10
11.0224605613
20
8.28114179145
30
2.53772059134
70
192
0
VERTEX
8
1
10
0
20
0
30
0
70
128
71
12
72
11
73
13
0
VERTEX
8
1
10
0
20
0
30
0
70
128
71
12
72
10
73
11
0
VERTEX
8
1
10
0
20
0
30
0
70
128
71
13
72
11
73
8
0
VERTEX
8
1
10
0
20
0
30
0
70
128
71
13
72
8
73
9
0
VERTEX
8
1
10
0
20
0
30
0
70
128
71
11
72
5
73
8
0
VERTEX
8
1
10
0
20
0
30
0
70
128
71
5
72
6
73
8
0
VERTEX
8
1
10
0
20
0
30
0
70
128
71
5
72
2
73
6
0
VERTEX
8
1
10
0
20
0
30
0
70
128
71
2
72
5
73
1
0
VERTEX
8
1
10
0
20
0
30
0
70
128
71
5
72
4
73
1
0
VERTEX
8
1
10
0
20
0
30
0
70
128
71
3
72
6
73
2
0
VERTEX
8
1
10
0
20
0
30
0
70
128
71
7
72
6
73
3
0
SEQEND
0
POLYLINE
8
0
39
0
100
AcDb3dPolyline
66
1
10
0
20
0
30
0
70
9
0
VERTEX
8
0
100
AcDb3dPolylineVertex
10
11.2322262828
20
7.68367689941
30
-0.131733716478
0
VERTEX
8
0
100
AcDb3dPolylineVertex
10
11.2106921563
20
8.23503044928
30
-0.1217587217
0
VERTEX
8
0
100
AcDb3dPolylineVertex
10
11.0060862251
20
8.20209957007
30
-0.141087747114
0
VERTEX
8
0
100
AcDb3dPolylineVertex
10
11.0170219287
20
7.66873565965
30
-0.137343426304
0
SEQEND
0
POLYLINE
8
1
70
64
66
1
10
0
20
0
30
0
71
4
72
2
0
VERTEX
8
1
10
11.2322262828
20
7.68367689941
30
-0.131733716478
70
192
0
VERTEX
8
1
10
11.0170219287
20
7.66873565965
30
-0.137343426304
70
192
0
VERTEX
8
1
10
11.2106921563
20
8.23503044928
30
-0.1217587217
70
192
0
VERTEX
8
1
10
11.0060862251
20
8.20209957007
30
-0.141087747114
70
192
0
VERTEX
8
1
10
0
20
0
30
0
70
128
71
2
72
1
73
4
0
VERTEX
8
1
10
0
20
0
30
0
70
128
71
4
72
1
73
3
0
SEQEND
0
POLYLINE
8
0
39
0
100
AcDb3dPolyline
66
1
10
0
20
0
30
0
70
9
0
VERTEX
8
0
100
AcDb3dPolylineVertex
10
11.2106921563
20
8.23503044928
30
-0.1217587217
0
VERTEX
8
0
100
AcDb3dPolylineVertex
10
11.1397481201
20
8.21000217968
30
1.84236770345
0
VERTEX
8
0
100
AcDb3dPolylineVertex
10
11.0193591664
20
8.2042368522
30
1.84171494281
0
VERTEX
8
0
100
AcDb3dPolylineVertex
10
11.0060862251
20
8.20209957007
30
-0.141087747114
0
SEQEND
0
POLYLINE
8
1
70
64
66
1
10
0
20
0
30
0
71
4
72
2
0
VERTEX
8
1
10
11.2106921563
20
8.23503044928
30
-0.1217587217
70
192
0
VERTEX
8
1
10
11.1397481201
20
8.21000217968
30
1.84236770345
70
192
0
VERTEX
8
1
10
11.0193591664
20
8.2042368522
30
1.84171494281
70
192
0
VERTEX
8
1
10
11.0060862251
20
8.20209957007
30
-0.141087747114
70
192
0
VERTEX
8
1
10
0
20
0
30
0
70
128
71
4
72
1
73
3
0
VERTEX
8
1
10
0
20
0
30
0
70
128
71
1
72
2
73
3
0
SEQEND
0
POLYLINE
8
0
39
0
100
AcDb3dPolyline
66
1
10
0
20
0
30
0
70
9
0
VERTEX
8
0
100
AcDb3dPolylineVertex
10
10.0028011015
20
5.14597117387
30
1.85716803563
0
VERTEX
8
0
100
AcDb3dPolylineVertex
10
10.6293456624
20
5.65251107687
30
1.85177578935
0
VERTEX
8
0
100
AcDb3dPolylineVertex
10
10.7191209876
20
5.55955508731
30
1.86271729568
0
VERTEX
8
0
100
AcDb3dPolylineVertex
10
10.0814799933
20
5.04303530786
30
1.86827641798
0
SEQEND
0
POLYLINE
8
1
70
64
66
1
10
0
20
0
30
0
71
4
72
2
0
VERTEX
8
1
10
10.6293456624
20
5.65251107687
30
1.85177578935
70
192
0
VERTEX
8
1
10
10.0028011015
20
5.14597117387
30
1.85716803563
70
192
0
VERTEX
8
1
10
10.7191209876
20
5.55955508731
30
1.86271729568
70
192
0
VERTEX
8
1
10
10.0814799933
20
5.04303530786
30
1.86827641798
70
192
0
VERTEX
8
1
10
0
20
0
30
0
70
128
71
4
72
1
73
3
0
VERTEX
8
1
10
0
20
0
30
0
70
128
71
4
72
2
73
1
0
SEQEND
0
POLYLINE
8
0
39
0
100
AcDb3dPolyline
66
1
10
0
20
0
30
0
70
9
0
VERTEX
8
0
100
AcDb3dPolylineVertex
10
10.6202496609
20
5.63459611727
30
-0.119786774573
0
VERTEX
8
0
100
AcDb3dPolylineVertex
10
9.99603764829
20
5.12995722855
30
-0.111501880289
0
VERTEX
8
0
100
AcDb3dPolylineVertex
10
10.0755714713
20
5.02576274555
30
-0.111348839783
0
VERTEX
8
0
100
AcDb3dPolylineVertex
10
10.7116692803
20
5.53978312582
30
-0.119789764951
0
SEQEND
0
POLYLINE
8
1
70
64
66
1
10
0
20
0
30
0
71
4
72
2
0
VERTEX
8
1
10
10.7116692803
20
5.53978312582
30
-0.119789764951
70
192
0
VERTEX
8
1
10
10.6202496609
20
5.63459611727
30
-0.119786774573
70
192
0
VERTEX
8
1
10
9.99603764829
20
5.12995722855
30
-0.111501880289
70
192
0
VERTEX
8
1
10
10.0755714713
20
5.02576274555
30
-0.111348839783
70
192
0
VERTEX
8
1
10
0
20
0
30
0
70
128
71
4
72
1
73
3
0
VERTEX
8
1
10
0
20
0
30
0
70
128
71
3
72
1
73
2
0
SEQEND
0
POLYLINE
8
0
39
0
100
AcDb3dPolyline
66
1
10
0
20
0
30
0
70
9
0
VERTEX
8
0
100
AcDb3dPolylineVertex
10
10.9717370101
20
5.77894006419
30
3.98998369735
0
VERTEX
8
0
100
AcDb3dPolylineVertex
10
8.87236436129
20
4.07002900118
30
2.80764986148
0
VERTEX
8
0
100
AcDb3dPolylineVertex
10
8.86026125926
20
4.04011223228
30
-0.0951961123037
0
VERTEX
8
0
100
AcDb3dPolylineVertex
10
10.0755714713
20
5.02576274555
30
-0.111348839783
0
VERTEX
8
0
100
AcDb3dPolylineVertex
10
10.0814799933
20
5.04303530786
30
1.86827641798
0
VERTEX
8
0
100
AcDb3dPolylineVertex
10
10.7191209876
20
5.55955508731
30
1.86271729568
0
VERTEX
8
0
100
AcDb3dPolylineVertex
10
10.7116692803
20
5.53978312582
30
-0.119789764951
0
VERTEX
8
0
100
AcDb3dPolylineVertex
10
11.1636222942
20
5.9058728528
30
-0.12579338773
0
VERTEX
8
0
100
AcDb3dPolylineVertex
10
11.1831899913
20
5.95018421445
30
3.98197670357
0
SEQEND
0
POLYLINE
8
1
70
64
66
1
10
0
20
0
30
0
71
9
72
7
0
VERTEX
8
1
10
11.1831899913
20
5.95018421445
30
3.98197670357
70
192
0
VERTEX
8
1
10
11.1636222942
20
5.9058728528
30
-0.12579338773
70
192
0
VERTEX
8
1
10
10.9717370101
20
5.77894006419
30
3.98998369735
70
192
0
VERTEX
8
1
10
10.7191209876
20
5.55955508731
30
1.86271729568
70
192
0
VERTEX
8
1
10
10.7116692803
20
5.53978312582
30
-0.119789764951
70
192
0
VERTEX
8
1
10
10.0814799933
20
5.04303530786
30
1.86827641798
70
192
0
VERTEX
8
1
10
10.0755714713
20
5.02576274555
30
-0.111348839783
70
192
0
VERTEX
8
1
10
8.87236436129
20
4.07002900118
30
2.80764986148
70
192
0
VERTEX
8
1
10
8.86026125926
20
4.04011223228
30
-0.0951961123037
70
192
0
VERTEX
8
1
10
0
20
0
30
0
70
128
71
5
72
2
73
4
0
VERTEX
8
1
10
0
20
0
30
0
70
128
71
4
72
2
73
1
0
VERTEX
8
1
10
0
20
0
30
0
70
128
71
4
72
1
73
3
0
VERTEX
8
1
10
0
20
0
30
0
70
128
71
6
72
4
73
3
0
VERTEX
8
1
10
0
20
0
30
0
70
128
71
8
72
6
73
3
0
VERTEX
8
1
10
0
20
0
30
0
70
128
71
9
72
6
73
8
0
VERTEX
8
1
10
0
20
0
30
0
70
128
71
9
72
7
73
6
0
SEQEND
0
POLYLINE
8
0
39
0
100
AcDb3dPolyline
66
1
10
0
20
0
30
0
70
9
0
VERTEX
8
0
100
AcDb3dPolylineVertex
10
9.99603764829
20
5.12995722855
30
-0.111501880289
0
VERTEX
8
0
100
AcDb3dPolylineVertex
10
10.0028011015
20
5.14597117387
30
1.85716803563
0
VERTEX
8
0
100
AcDb3dPolylineVertex
10
10.0814799933
20
5.04303530786
30
1.86827641798
0
VERTEX
8
0
100
AcDb3dPolylineVertex
10
10.0755714713
20
5.02576274555
30
-0.111348839783
0
SEQEND
0
POLYLINE
8
1
70
64
66
1
10
0
20
0
30
0
71
4
72
2
0
VERTEX
8
1
10
10.0755714713
20
5.02576274555
30
-0.111348839783
70
192
0
VERTEX
8
1
10
9.99603764829
20
5.12995722855
30
-0.111501880289
70
192
0
VERTEX
8
1
10
10.0028011015
20
5.14597117387
30
1.85716803563
70
192
0
VERTEX
8
1
10
10.0814799933
20
5.04303530786
30
1.86827641798
70
192
0
VERTEX
8
1
10
0
20
0
30
0
70
128
71
3
72
4
73
1
0
VERTEX
8
1
10
0
20
0
30
0
70
128
71
3
72
1
73
2
0
SEQEND
0
POLYLINE
8
0
39
0
100
AcDb3dPolyline
66
1
10
0
20
0
30
0
70
9
0
VERTEX
8
0
100
AcDb3dPolylineVertex
10
8.05844708125
20
3.74544286674
30
1.87725022926
0
VERTEX
8
0
100
AcDb3dPolylineVertex
10
8.04901764367
20
3.72651680956
30
-0.0868839201169
0
VERTEX
8
0
100
AcDb3dPolylineVertex
10
8.06380651491
20
3.59472251848
30
-0.0860491165076
0
VERTEX
8
0
100
AcDb3dPolylineVertex
10
8.07320623341
20
3.61448266529
30
1.88897714259
0
SEQEND
0
POLYLINE
8
1
70
64
66
1
10
0
20
0
30
0
71
4
72
2
0
VERTEX
8
1
10
8.06380651491
20
3.59472251848
30
-0.0860491165076
70
192
0
VERTEX
8
1
10
8.07320623341
20
3.61448266529
30
1.88897714259
70
192
0
VERTEX
8
1
10
8.04901764367
20
3.72651680956
30
-0.0868839201169
70
192
0
VERTEX
8
1
10
8.05844708125
20
3.74544286674
30
1.87725022926
70
192
0
VERTEX
8
1
10
0
20
0
30
0
70
128
71
3
72
1
73
4
0
VERTEX
8
1
10
0
20
0
30
0
70
128
71
4
72
1
73
2
0
SEQEND
0
POLYLINE
8
0
39
0
100
AcDb3dPolyline
66
1
10
0
20
0
30
0
70
9
0
VERTEX
8
0
100
AcDb3dPolylineVertex
10
7.42292067159
20
3.62310001609
30
2.50603764015
0
VERTEX
8
0
100
AcDb3dPolylineVertex
10
5.50913750474
20
3.64390361127
30
3.86727329912
0
VERTEX
8
0
100
AcDb3dPolylineVertex
10
4.9730995459
20
3.64600854063
30
3.87717707
0
VERTEX
8
0
100
AcDb3dPolylineVertex
10
4.95049331799
20
3.60660275055
30
-0.0628677499033
0
VERTEX
8
0
100
AcDb3dPolylineVertex
10
7.23857939555
20
3.59787171955
30
-0.0799045487076
0
VERTEX
8
0
100
AcDb3dPolylineVertex
10
7.25538249866
20
3.6175897426
30
1.89370096087
0
VERTEX
8
0
100
AcDb3dPolylineVertex
10
8.07320623341
20
3.61448266529
30
1.88897714259
0
VERTEX
8
0
100
AcDb3dPolylineVertex
10
8.06380651491
20
3.59472251848
30
-0.0860491165076
0
VERTEX
8
0
100
AcDb3dPolylineVertex
10
8.73430044025
20
3.59216375797
30
-0.0910414498046
0
VERTEX
8
0
100
AcDb3dPolylineVertex
10
8.73453747726
20
3.61827300301
30
2.51404867599
0
SEQEND
0
POLYLINE
8
1
70
64
66
1
10
0
20
0
30
0
71
10
72
8
0
VERTEX
8
1
10
8.73453747726
20
3.61827300301
30
2.51404867599
70
192
0
VERTEX
8
1
10
8.73430044025
20
3.59216375797
30
-0.0910414498046
70
192
0
VERTEX
8
1
10
8.07320623341
20
3.61448266529
30
1.88897714259
70
192
0
VERTEX
8
1
10
8.06380651491
20
3.59472251848
30
-0.0860491165076
70
192
0
VERTEX
8
1
10
7.42292067159
20
3.62310001609
30
2.50603764015
70
192
0
VERTEX
8
1
10
7.25538249866
20
3.6175897426
30
1.89370096087
70
192
0
VERTEX
8
1
10
7.23857939555
20
3.59787171955
30
-0.0799045487076
70
192
0
VERTEX
8
1
10
5.50913750474
20
3.64390361127
30
3.86727329912
70
192
0
VERTEX
8
1
10
4.9730995459
20
3.64600854063
30
3.87717707
70
192
0
VERTEX
8
1
10
4.95049331799
20
3.60660275055
30
-0.0628677499033
70
192
0
VERTEX
8
1
10
0
20
0
30
0
70
128
71
4
72
2
73
3
0
VERTEX
8
1
10
0
20
0
30
0
70
128
71
3
72
2
73
1
0
VERTEX
8
1
10
0
20
0
30
0
70
128
71
3
72
1
73
5
0
VERTEX
8
1
10
0
20
0
30
0
70
128
71
6
72
3
73
5
0
VERTEX
8
1
10
0
20
0
30
0
70
128
71
8
72
6
73
5
0
VERTEX
8
1
10
0
20
0
30
0
70
128
71
8
72
10
73
6
0
VERTEX
8
1
10
0
20
0
30
0
70
128
71
10
72
8
73
9
0
VERTEX
8
1
10
0
20
0
30
0
70
128
71
10
72
7
73
6
0
SEQEND
0
POLYLINE
8
0
39
0
100
AcDb3dPolyline
66
1
10
0
20
0
30
0
70
9
0
VERTEX
8
0
100
AcDb3dPolylineVertex
10
4.19937279356
20
3.75642842963
30
2.61336048011
0
VERTEX
8
0
100
AcDb3dPolylineVertex
10
8.27391442048
20
3.75203662657
30
2.58375873269
0
VERTEX
8
0
100
AcDb3dPolylineVertex
10
8.25977328261
20
3.72628932717
30
-0.0884573656803
0
VERTEX
8
0
100
AcDb3dPolylineVertex
10
8.04901764367
20
3.72651680956
30
-0.0868839201169
0
VERTEX
8
0
100
AcDb3dPolylineVertex
10
8.05844708125
20
3.74544286674
30
1.87725022926
0
VERTEX
8
0
100
AcDb3dPolylineVertex
10
7.2642807605
20
3.74628925331
30
1.88203326859
0
VERTEX
8
0
100
AcDb3dPolylineVertex
10
7.24761790742
20
3.72738220914
30
-0.0809010853206
0
VERTEX
8
0
100
AcDb3dPolylineVertex
10
4.19667635383
20
3.73067636487
30
-0.0581242057238
0
SEQEND
0
POLYLINE
8
1
70
64
66
1
10
0
20
0
30
0
71
8
72
6
0
VERTEX
8
1
10
4.19667635383
20
3.73067636487
30
-0.0581242057238
70
192
0
VERTEX
8
1
10
4.19937279356
20
3.75642842963
30
2.61336048011
70
192
0
VERTEX
8
1
10
7.24761790742
20
3.72738220914
30
-0.0809010853206
70
192
0
VERTEX
8
1
10
7.2642807605
20
3.74628925331
30
1.88203326859
70
192
0
VERTEX
8
1
10
8.04901764367
20
3.72651680956
30
-0.0868839201169
70
192
0
VERTEX
8
1
10
8.05844708125
20
3.74544286674
30
1.87725022926
70
192
0
VERTEX
8
1
10
8.25977328261
20
3.72628932717
30
-0.0884573656803
70
192
0
VERTEX
8
1
10
8.27391442048
20
3.75203662657
30
2.58375873269
70
192
0
VERTEX
8
1
10
0
20
0
30
0
70
128
71
8
72
7
73
6
0
VERTEX
8
1
10
0
20
0
30
0
70
128
71
6
72
4
73
8
0
VERTEX
8
1
10
0
20
0
30
0
70
128
71
8
72
4
73
2
0
VERTEX
8
1
10
0
20
0
30
0
70
128
71
4
72
1
73
2
0
VERTEX
8
1
10
0
20
0
30
0
70
128
71
3
72
1
73
4
0
VERTEX
8
1
10
0
20
0
30
0
70
128
71
7
72
5
73
6
0
SEQEND
0
POLYLINE
8
0
39
0
100
AcDb3dPolyline
66
1
10
0
20
0
30
0
70
9
0
VERTEX
8
0
100
AcDb3dPolylineVertex
10
7.2642807605
20
3.74628925331
30
1.88203326859
0
VERTEX
8
0
100
AcDb3dPolylineVertex
10
8.05844708125
20
3.74544286674
30
1.87725022926
0
VERTEX
8
0
100
AcDb3dPolylineVertex
10
8.07320623341
20
3.61448266529
30
1.88897714259
0
VERTEX
8
0
100
AcDb3dPolylineVertex
10
7.25538249866
20
3.6175897426
30
1.89370096087
0
SEQEND
0
POLYLINE
8
1
70
64
66
1
10
0
20
0
30
0
71
4
72
2
0
VERTEX
8
1
10
7.25538249866
20
3.6175897426
30
1.89370096087
70
192
0
VERTEX
8
1
10
7.2642807605
20
3.74628925331
30
1.88203326859
70
192
0
VERTEX
8
1
10
8.07320623341
20
3.61448266529
30
1.88897714259
70
192
0
VERTEX
8
1
10
8.05844708125
20
3.74544286674
30
1.87725022926
70
192
0
VERTEX
8
1
10
0
20
0
30
0
70
128
71
4
72
3
73
1
0
VERTEX
8
1
10
0
20
0
30
0
70
128
71
2
72
4
73
1
0
SEQEND
0
POLYLINE
8
0
39
0
100
AcDb3dPolyline
66
1
10
0
20
0
30
0
70
9
0
VERTEX
8
0
100
AcDb3dPolylineVertex
10
3.5582292298
20
4.3768367852
30
1.9072605116
0
VERTEX
8
0
100
AcDb3dPolylineVertex
10
4.13238832107
20
3.81446099814
30
1.90116654982
0
VERTEX
8
0
100
AcDb3dPolylineVertex
10
4.04691594788
20
3.71149239158
30
1.90928725585
0
VERTEX
8
0
100
AcDb3dPolylineVertex
10
3.45864534746
20
4.29812904665
30
1.91512766404
0
SEQEND
0
POLYLINE
8
1
70
64
66
1
10
0
20
0
30
0
71
4
72
2
0
VERTEX
8
1
10
3.45864534746
20
4.29812904665
30
1.91512766404
70
192
0
VERTEX
8
1
10
4.04691594788
20
3.71149239158
30
1.90928725585
70
192
0
VERTEX
8
1
10
3.5582292298
20
4.3768367852
30
1.9072605116
70
192
0
VERTEX
8
1
10
4.13238832107
20
3.81446099814
30
1.90116654982
70
192
0
VERTEX
8
1
10
0
20
0
30
0
70
128
71
4
72
2
73
1
0
VERTEX
8
1
10
0
20
0
30
0
70
128
71
3
72
4
73
1
0
SEQEND
0
POLYLINE
8
0
39
0
100
AcDb3dPolyline
66
1
10
0
20
0
30
0
70
9
0
VERTEX
8
0
100
AcDb3dPolylineVertex
10
3.55265239477
20
4.36141324778
30
-0.0578357787865
0
VERTEX
8
0
100
AcDb3dPolylineVertex
10
3.5582292298
20
4.3768367852
30
1.9072605116
0
VERTEX
8
0
100
AcDb3dPolylineVertex
10
3.45864534746
20
4.29812904665
30
1.91512766404
0
VERTEX
8
0
100
AcDb3dPolylineVertex
10
3.44798116798
20
4.27864614463
30
-0.05645978042
0
SEQEND
0
POLYLINE
8
1
70
64
66
1
10
0
20
0
30
0
71
4
72
2
0
VERTEX
8
1
10
3.5582292298
20
4.3768367852
30
1.9072605116
70
192
0
VERTEX
8
1
10
3.55265239477
20
4.36141324778
30
-0.0578357787865
70
192
0
VERTEX
8
1
10
3.45864534746
20
4.29812904665
30
1.91512766404
70
192
0
VERTEX
8
1
10
3.44798116798
20
4.27864614463
30
-0.05645978042
70
192
0
VERTEX
8
1
10
0
20
0
30
0
70
128
71
4
72
2
73
1
0
VERTEX
8
1
10
0
20
0
30
0
70
128
71
4
72
1
73
3
0
SEQEND
0
POLYLINE
8
0
39
0
100
AcDb3dPolyline
66
1
10
0
20
0
30
0
70
9
0
VERTEX
8
0
100
AcDb3dPolylineVertex
10
4.12269071555
20
3.80313570606
30
-0.0580910973209
0
VERTEX
8
0
100
AcDb3dPolylineVertex
10
3.55265239477
20
4.36141324778
30
-0.0578357787865
0
VERTEX
8
0
100
AcDb3dPolylineVertex
10
3.44798116798
20
4.27864614463
30
-0.05645978042
0
VERTEX
8
0
100
AcDb3dPolylineVertex
10
4.03311419678
20
3.69522417275
30
-0.0566476464243
0
SEQEND
0
POLYLINE
8
1
70
64
66
1
10
0
20
0
30
0
71
4
72
2
0
VERTEX
8
1
10
4.12269071555
20
3.80313570606
30
-0.0580910973209
70
192
0
VERTEX
8
1
10
3.55265239477
20
4.36141324778
30
-0.0578357787865
70
192
0
VERTEX
8
1
10
4.03311419678
20
3.69522417275
30
-0.0566476464243
70
192
0
VERTEX
8
1
10
3.44798116798
20
4.27864614463
30
-0.05645978042
70
192
0
VERTEX
8
1
10
0
20
0
30
0
70
128
71
4
72
3
73
2
0
VERTEX
8
1
10
0
20
0
30
0
70
128
71
3
72
1
73
2
0
SEQEND
0
POLYLINE
8
0
39
0
100
AcDb3dPolyline
66
1
10
0
20
0
30
0
70
9
0
VERTEX
8
0
100
AcDb3dPolylineVertex
10
4.13238832107
20
3.81446099814
30
1.90116654982
0
VERTEX
8
0
100
AcDb3dPolylineVertex
10
4.12269071555
20
3.80313570606
30
-0.0580910973209
0
VERTEX
8
0
100
AcDb3dPolylineVertex
10
4.03311419678
20
3.69522417275
30
-0.0566476464243
0
VERTEX
8
0
100
AcDb3dPolylineVertex
10
4.04691594788
20
3.71149239158
30
1.90928725585
0
SEQEND
0
POLYLINE
8
1
70
64
66
1
10
0
20
0
30
0
71
4
72
2
0
VERTEX
8
1
10
4.03311419678
20
3.69522417275
30
-0.0566476464243
70
192
0
VERTEX
8
1
10
4.04691594788
20
3.71149239158
30
1.90928725585
70
192
0
VERTEX
8
1
10
4.12269071555
20
3.80313570606
30
-0.0580910973209
70
192
0
VERTEX
8
1
10
4.13238832107
20
3.81446099814
30
1.90116654982
70
192
0
VERTEX
8
1
10
0
20
0
30
0
70
128
71
4
72
3
73
1
0
VERTEX
8
1
10
0
20
0
30
0
70
128
71
2
72
4
73
1
0
SEQEND
0
POLYLINE
8
0
39
0
100
AcDb3dPolyline
66
1
10
0
20
0
30
0
70
9
0
VERTEX
8
0
100
AcDb3dPolylineVertex
10
3.41688699863
20
4.35804973203
30
3.1121671717
0
VERTEX
8
0
100
AcDb3dPolylineVertex
10
3.39415407711
20
4.33231581133
30
-0.0564425725144
0
VERTEX
8
0
100
AcDb3dPolylineVertex
10
3.44798116798
20
4.27864614463
30
-0.05645978042
0
VERTEX
8
0
100
AcDb3dPolylineVertex
10
3.45864534746
20
4.29812904665
30
1.91512766404
0
VERTEX
8
0
100
AcDb3dPolylineVertex
10
4.04691594788
20
3.71149239158
30
1.90928725585
0
VERTEX
8
0
100
AcDb3dPolylineVertex
10
4.03311419678
20
3.69522417275
30
-0.0566476464243
0
VERTEX
8
0
100
AcDb3dPolylineVertex
10
4.12493162384
20
3.60367527618
30
-0.0566770876599
0
VERTEX
8
0
100
AcDb3dPolylineVertex
10
4.15574778907
20
3.62928229255
30
3.63125230721
0
SEQEND
0
POLYLINE
8
1
70
64
66
1
10
0
20
0
30
0
71
8
72
6
0
VERTEX
8
1
10
4.15574778907
20
3.62928229255
30
3.63125230721
70
192
0
VERTEX
8
1
10
4.12493162384
20
3.60367527618
30
-0.0566770876599
70
192
0
VERTEX
8
1
10
4.03311419678
20
3.69522417275
30
-0.0566476464243
70
192
0
VERTEX
8
1
10
4.04691594788
20
3.71149239158
30
1.90928725585
70
192
0
VERTEX
8
1
10
3.44798116798
20
4.27864614463
30
-0.05645978042
70
192
0
VERTEX
8
1
10
3.45864534746
20
4.29812904665
30
1.91512766404
70
192
0
VERTEX
8
1
10
3.41688699863
20
4.35804973203
30
3.1121671717
70
192
0
VERTEX
8
1
10
3.39415407711
20
4.33231581133
30
-0.0564425725144
70
192
0
VERTEX
8
1
10
0
20
0
30
0
70
128
71
8
72
6
73
7
0
VERTEX
8
1
10
0
20
0
30
0
70
128
71
8
72
5
73
6
0
VERTEX
8
1
10
0
20
0
30
0
70
128
71
7
72
6
73
4
0
VERTEX
8
1
10
0
20
0
30
0
70
128
71
1
72
7
73
4
0
VERTEX
8
1
10
0
20
0
30
0
70
128
71
1
72
4
73
2
0
VERTEX
8
1
10
0
20
0
30
0
70
128
71
4
72
3
73
2
0
SEQEND
0
POLYLINE
8
0
39
0
100
AcDb3dPolyline
66
1
10
0
20
0
30
0
70
9
0
VERTEX
8
0
100
AcDb3dPolylineVertex
10
3.28620232339
20
5.13222244096
30
1.9496206808
0
VERTEX
8
0
100
AcDb3dPolylineVertex
10
3.27609463486
20
5.12164209108
30
-0.0612223149122
0
VERTEX
8
0
100
AcDb3dPolylineVertex
10
3.14995123885
20
5.1204227985
30
-0.0602709072461
0
VERTEX
8
0
100
AcDb3dPolylineVertex
10
3.16140993905
20
5.13136939011
30
1.95025246704
0
SEQEND
0
POLYLINE
8
1
70
64
66
1
10
0
20
0
30
0
71
4
72
2
0
VERTEX
8
1
10
3.14995123885
20
5.1204227985
30
-0.0602709072461
70
192
0
VERTEX
8
1
10
3.16140993905
20
5.13136939011
30
1.95025246704
70
192
0
VERTEX
8
1
10
3.27609463486
20
5.12164209108
30
-0.0612223149122
70
192
0
VERTEX
8
1
10
3.28620232339
20
5.13222244096
30
1.9496206808
70
192
0
VERTEX
8
1
10
0
20
0
30
0
70
128
71
3
72
1
73
4
0
VERTEX
8
1
10
0
20
0
30
0
70
128
71
4
72
1
73
2
0
SEQEND
0
POLYLINE
8
0
39
0
100
AcDb3dPolyline
66
1
10
0
20
0
30
0
70
9
0
VERTEX
8
0
100
AcDb3dPolylineVertex
10
3.27173211658
20
7.71725092147
30
2.58226229129
0
VERTEX
8
0
100
AcDb3dPolylineVertex
10
3.27397193261
20
7.72064466456
30
3.02926372541
0
VERTEX
8
0
100
AcDb3dPolylineVertex
10
3.28665538632
20
6.50359779022
30
3.89107584934
0
VERTEX
8
0
100
AcDb3dPolylineVertex
10
3.29272175404
20
5.62081613921
30
3.89723061743
0
VERTEX
8
0
100
AcDb3dPolylineVertex
10
3.2959904699
20
4.64770914436
30
3.22878295272
0
VERTEX
8
0
100
AcDb3dPolylineVertex
10
3.27948086179
20
4.62894903521
30
-0.0577134627472
0
VERTEX
8
0
100
AcDb3dPolylineVertex
10
3.27609463486
20
5.12164209108
30
-0.0612223149122
0
VERTEX
8
0
100
AcDb3dPolylineVertex
10
3.28620232339
20
5.13222244096
30
1.9496206808
0
VERTEX
8
0
100
AcDb3dPolylineVertex
10
3.28063337105
20
5.94196227739
30
1.94310634316
0
VERTEX
8
0
100
AcDb3dPolylineVertex
10
3.2705522966
20
5.92807983336
30
-0.0669658188816
0
VERTEX
8
0
100
AcDb3dPolylineVertex
10
3.26388577129
20
6.89807586694
30
-0.0738740835698
0
VERTEX
8
0
100
AcDb3dPolylineVertex
10
3.27377576759
20
6.9118127013
30
1.89825552795
0
VERTEX
8
0
100
AcDb3dPolylineVertex
10
3.26836939061
20
7.69686027457
30
1.89046608121
0
VERTEX
8
0
100
AcDb3dPolylineVertex
10
3.25848459958
20
7.68397903843
30
-0.079471188352
0
VERTEX
8
0
100
AcDb3dPolylineVertex
10
3.25704497295
20
7.89344167424
30
-0.0809630475612
0
VERTEX
8
0
100
AcDb3dPolylineVertex
10
3.27044992391
20
7.91466171501
30
2.59555892279
0
SEQEND
0
POLYLINE
8
1
70
64
66
1
10
0
20
0
30
0
71
16
72
14
0
VERTEX
8
1
10
3.27044992391
20
7.91466171501
30
2.59555892279
70
192
0
VERTEX
8
1
10
3.25704497295
20
7.89344167424
30
-0.0809630475612
70
192
0
VERTEX
8
1
10
3.27397193261
20
7.72064466456
30
3.02926372541
70
192
0
VERTEX
8
1
10
3.27173211658
20
7.71725092147
30
2.58226229129
70
192
0
VERTEX
8
1
10
3.26836939061
20
7.69686027457
30
1.89046608121
70
192
0
VERTEX
8
1
10
3.25848459958
20
7.68397903843
30
-0.079471188352
70
192
0
VERTEX
8
1
10
3.27377576759
20
6.9118127013
30
1.89825552795
70
192
0
VERTEX
8
1
10
3.26388577129
20
6.89807586694
30
-0.0738740835698
70
192
0
VERTEX
8
1
10
3.28665538632
20
6.50359779022
30
3.89107584934
70
192
0
VERTEX
8
1
10
3.28063337105
20
5.94196227739
30
1.94310634316
70
192
0
VERTEX
8
1
10
3.2705522966
20
5.92807983336
30
-0.0669658188816
70
192
0
VERTEX
8
1
10
3.29272175404
20
5.62081613921
30
3.89723061743
70
192
0
VERTEX
8
1
10
3.28620232339
20
5.13222244096
30
1.9496206808
70
192
0
VERTEX
8
1
10
3.27609463486
20
5.12164209108
30
-0.0612223149122
70
192
0
VERTEX
8
1
10
3.2959904699
20
4.64770914436
30
3.22878295272
70
192
0
VERTEX
8
1
10
3.27948086179
20
4.62894903521
30
-0.0577134627472
70
192
0
VERTEX
8
1
10
0
20
0
30
0
70
128
71
6
72
2
73
5
0
VERTEX
8
1
10
0
20
0
30
0
70
128
71
1
72
5
73
2
0
VERTEX
8
1
10
0
20
0
30
0
70
128
71
4
72
5
73
1
0
VERTEX
8
1
10
0
20
0
30
0
70
128
71
7
72
5
73
4
0
VERTEX
8
1
10
0
20
0
30
0
70
128
71
7
72
4
73
3
0
VERTEX
8
1
10
0
20
0
30
0
70
128
71
9
72
7
73
3
0
VERTEX
8
1
10
0
20
0
30
0
70
128
71
10
72
7
73
9
0
VERTEX
8
1
10
0
20
0
30
0
70
128
71
11
72
7
73
10
0
VERTEX
8
1
10
0
20
0
30
0
70
128
71
11
72
8
73
7
0
VERTEX
8
1
10
0
20
0
30
0
70
128
71
10
72
9
73
12
0
VERTEX
8
1
10
0
20
0
30
0
70
128
71
12
72
15
73
10
0
VERTEX
8
1
10
0
20
0
30
0
70
128
71
15
72
13
73
10
0
VERTEX
8
1
10
0
20
0
30
0
70
128
71
16
72
13
73
15
0
VERTEX
8
1
10
0
20
0
30
0
70
128
71
16
72
14
73
13
0
SEQEND
0
POLYLINE
8
0
39
0
100
AcDb3dPolyline
66
1
10
0
20
0
30
0
70
9
0
VERTEX
8
0
100
AcDb3dPolylineVertex
10
3.27609463486
20
5.12164209108
30
-0.0612223149122
0
VERTEX
8
0
100
AcDb3dPolylineVertex
10
3.2705522966
20
5.92807983336
30
-0.0669658188816
0
VERTEX
8
0
100
AcDb3dPolylineVertex
10
3.14243151453
20
5.94235474046
30
-0.0661106931358
0
VERTEX
8
0
100
AcDb3dPolylineVertex
10
3.14995123885
20
5.1204227985
30
-0.0602709072461
0
SEQEND
0
POLYLINE
8
1
70
64
66
1
10
0
20
0
30
0
71
4
72
2
0
VERTEX
8
1
10
3.2705522966
20
5.92807983336
30
-0.0669658188816
70
192
0
VERTEX
8
1
10
3.14243151453
20
5.94235474046
30
-0.0661106931358
70
192
0
VERTEX
8
1
10
3.27609463486
20
5.12164209108
30
-0.0612223149122
70
192
0
VERTEX
8
1
10
3.14995123885
20
5.1204227985
30
-0.0602709072461
70
192
0
VERTEX
8
1
10
0
20
0
30
0
70
128
71
4
72
3
73
1
0
VERTEX
8
1
10
0
20
0
30
0
70
128
71
4
72
1
73
2
0
SEQEND
0
POLYLINE
8
0
39
0
100
AcDb3dPolyline
66
1
10
0
20
0
30
0
70
9
0
VERTEX
8
0
100
AcDb3dPolylineVertex
10
3.27377576759
20
6.9118127013
30
1.89825552795
0
VERTEX
8
0
100
AcDb3dPolylineVertex
10
3.26388577129
20
6.89807586694
30
-0.0738740835698
0
VERTEX
8
0
100
AcDb3dPolylineVertex
10
3.1085962708
20
6.86546850499
30
-0.0724796254361
0
VERTEX
8
0
100
AcDb3dPolylineVertex
10
3.14531674009
20
6.88488253032
30
1.90674958051
0
SEQEND
0
POLYLINE
8
1
70
64
66
1
10
0
20
0
30
0
71
4
72
2
0
VERTEX
8
1
10
3.1085962708
20
6.86546850499
30
-0.0724796254361
70
192
0
VERTEX
8
1
10
3.14531674009
20
6.88488253032
30
1.90674958051
70
192
0
VERTEX
8
1
10
3.26388577129
20
6.89807586694
30
-0.0738740835698
70
192
0
VERTEX
8
1
10
3.27377576759
20
6.9118127013
30
1.89825552795
70
192
0
VERTEX
8
1
10
0
20
0
30
0
70
128
71
3
72
1
73
4
0
VERTEX
8
1
10
0
20
0
30
0
70
128
71
4
72
1
73
2
0
SEQEND
0
POLYLINE
8
0
39
0
100
AcDb3dPolyline
66
1
10
0
20
0
30
0
70
9
0
VERTEX
8
0
100
AcDb3dPolylineVertex
10
3.26836939061
20
7.69686027457
30
1.89046608121
0
VERTEX
8
0
100
AcDb3dPolylineVertex
10
3.27377576759
20
6.9118127013
30
1.89825552795
0
VERTEX
8
0
100
AcDb3dPolylineVertex
10
3.14531674009
20
6.88488253032
30
1.90674958051
0
VERTEX
8
0
100
AcDb3dPolylineVertex
10
3.13857151676
20
7.70105309501
30
1.89872323552
0
SEQEND
0
POLYLINE
8
1
70
64
66
1
10
0
20
0
30
0
71
4
72
2
0
VERTEX
8
1
10
3.14531674009
20
6.88488253032
30
1.90674958051
70
192
0
VERTEX
8
1
10
3.27377576759
20
6.9118127013
30
1.89825552795
70
192
0
VERTEX
8
1
10
3.13857151676
20
7.70105309501
30
1.89872323552
70
192
0
VERTEX
8
1
10
3.26836939061
20
7.69686027457
30
1.89046608121
70
192
0
VERTEX
8
1
10
0
20
0
30
0
70
128
71
4
72
2
73
3
0
VERTEX
8
1
10
0
20
0
30
0
70
128
71
2
72
1
73
3
0
SEQEND
0
POLYLINE
8
0
39
0
100
AcDb3dPolyline
66
1
10
0
20
0
30
0
70
9
0
VERTEX
8
0
100
AcDb3dPolylineVertex
10
3.25848459958
20
7.68397903843
30
-0.079471188352
0
VERTEX
8
0
100
AcDb3dPolylineVertex
10
3.26836939061
20
7.69686027457
30
1.89046608121
0
VERTEX
8
0
100
AcDb3dPolylineVertex
10
3.13857151676
20
7.70105309501
30
1.89872323552
0
VERTEX
8
0
100
AcDb3dPolylineVertex
10
3.10115302278
20
7.68900184441
30
-0.0783315424411
0
SEQEND
0
POLYLINE
8
1
70
64
66
1
10
0
20
0
30
0
71
4
72
2
0
VERTEX
8
1
10
3.26836939061
20
7.69686027457
30
1.89046608121
70
192
0
VERTEX
8
1
10
3.25848459958
20
7.68397903843
30
-0.079471188352
70
192
0
VERTEX
8
1
10
3.13857151676
20
7.70105309501
30
1.89872323552
70
192
0
VERTEX
8
1
10
3.10115302278
20
7.68900184441
30
-0.0783315424411
70
192
0
VERTEX
8
1
10
0
20
0
30
0
70
128
71
4
72
2
73
1
0
VERTEX
8
1
10
0
20
0
30
0
70
128
71
4
72
1
73
3
0
SEQEND
0
POLYLINE
8
0
39
0
100
AcDb3dPolyline
66
1
10
0
20
0
30
0
70
9
0
VERTEX
8
0
100
AcDb3dPolylineVertex
10
3.1639237437
20
6.21686152286
30
3.8194479785
0
VERTEX
8
0
100
AcDb3dPolylineVertex
10
3.16042873086
20
6.63388823397
30
3.80827780043
0
VERTEX
8
0
100
AcDb3dPolylineVertex
10
3.08757037475
20
10.3772233111
30
1.11371717346
0
VERTEX
8
0
100
AcDb3dPolylineVertex
10
3.07671409774
20
10.3929809868
30
-0.0975453869818
0
VERTEX
8
0
100
AcDb3dPolylineVertex
10
3.10115302278
20
7.68900184441
30
-0.0783315424411
0
VERTEX
8
0
100
AcDb3dPolylineVertex
10
3.13857151676
20
7.70105309501
30
1.89872323552
0
VERTEX
8
0
100
AcDb3dPolylineVertex
10
3.14531674009
20
6.88488253032
30
1.90674958051
0
VERTEX
8
0
100
AcDb3dPolylineVertex
10
3.1085962708
20
6.86546850499
30
-0.0724796254361
0
VERTEX
8
0
100
AcDb3dPolylineVertex
10
3.13742973808
20
6.19321779127
30
-0.067872832805
0
SEQEND
0
POLYLINE
8
1
70
64
66
1
10
0
20
0
30
0
71
9
72
7
0
VERTEX
8
1
10
3.13742973808
20
6.19321779127
30
-0.067872832805
70
192
0
VERTEX
8
1
10
3.1639237437
20
6.21686152286
30
3.8194479785
70
192
0
VERTEX
8
1
10
3.16042873086
20
6.63388823397
30
3.80827780043
70
192
0
VERTEX
8
1
10
3.1085962708
20
6.86546850499
30
-0.0724796254361
70
192
0
VERTEX
8
1
10
3.14531674009
20
6.88488253032
30
1.90674958051
70
192
0
VERTEX
8
1
10
3.10115302278
20
7.68900184441
30
-0.0783315424411
70
192
0
VERTEX
8
1
10
3.13857151676
20
7.70105309501
30
1.89872323552
70
192
0
VERTEX
8
1
10
3.07671409774
20
10.3929809868
30
-0.0975453869818
70
192
0
VERTEX
8
1
10
3.08757037475
20
10.3772233111
30
1.11371717346
70
192
0
VERTEX
8
1
10
0
20
0
30
0
70
128
71
8
72
6
73
9
0
VERTEX
8
1
10
0
20
0
30
0
70
128
71
9
72
6
73
7
0
VERTEX
8
1
10
0
20
0
30
0
70
128
71
9
72
7
73
3
0
VERTEX
8
1
10
0
20
0
30
0
70
128
71
7
72
5
73
3
0
VERTEX
8
1
10
0
20
0
30
0
70
128
71
2
72
3
73
5
0
VERTEX
8
1
10
0
20
0
30
0
70
128
71
2
72
5
73
1
0
VERTEX
8
1
10
0
20
0
30
0
70
128
71
5
72
4
73
1
0
SEQEND
0
ENDSEC
0
EOF